ISO-10303-21;
HEADER;
FILE_DESCRIPTION (( 'STEP AP203' ),
    '1' );
FILE_NAME ('Raiser.STEP',
    '2012-06-26T18:48:34',
    ( '' ),
    ( '' ),
    'SwSTEP 2.0',
    'SolidWorks 2010',
    '' );
FILE_SCHEMA (( 'CONFIG_CONTROL_DESIGN' ));
ENDSEC;

DATA;
#1 = LINE ( 'NONE', #266, #2 ) ;
#2 = VECTOR ( 'NONE', #270, 1000.000000000000000 ) ;
#3 = FACE_OUTER_BOUND ( 'NONE', #402, .T. ) ;
#4 = VECTOR ( 'NONE', #276, 1000.000000000000000 ) ;
#5 = FACE_OUTER_BOUND ( 'NONE', #392, .T. ) ;
#6 = FACE_BOUND ( 'NONE', #399, .T. ) ;
#7 = CYLINDRICAL_SURFACE ( 'NONE', #181, 9.999999999999992900 ) ;
#8 = ORIENTED_EDGE ( 'NONE', *, *, #165, .F. ) ;
#9 = ORIENTED_EDGE ( 'NONE', *, *, #168, .F. ) ;
#10 = ORIENTED_EDGE ( 'NONE', *, *, #153, .T. ) ;
#11 = ORIENTED_EDGE ( 'NONE', *, *, #169, .F. ) ;
#12 = ORIENTED_EDGE ( 'NONE', *, *, #149, .F. ) ;
#13 = ORIENTED_EDGE ( 'NONE', *, *, #152, .F. ) ;
#14 = ORIENTED_EDGE ( 'NONE', *, *, #164, .F. ) ;
#15 = ORIENTED_EDGE ( 'NONE', *, *, #166, .F. ) ;
#16 = ORIENTED_EDGE ( 'NONE', *, *, #167, .T. ) ;
#17 = ORIENTED_EDGE ( 'NONE', *, *, #155, .F. ) ;
#18 = ORIENTED_EDGE ( 'NONE', *, *, #148, .F. ) ;
#19 = ORIENTED_EDGE ( 'NONE', *, *, #161, .F. ) ;
#20 = ORIENTED_EDGE ( 'NONE', *, *, #154, .F. ) ;
#21 = ORIENTED_EDGE ( 'NONE', *, *, #151, .T. ) ;
#22 = ORIENTED_EDGE ( 'NONE', *, *, #157, .F. ) ;
#23 = ORIENTED_EDGE ( 'NONE', *, *, #160, .T. ) ;
#24 = ORIENTED_EDGE ( 'NONE', *, *, #156, .F. ) ;
#25 = ORIENTED_EDGE ( 'NONE', *, *, #158, .F. ) ;
#26 = ORIENTED_EDGE ( 'NONE', *, *, #161, .T. ) ;
#27 = ORIENTED_EDGE ( 'NONE', *, *, #148, .T. ) ;
#28 = ORIENTED_EDGE ( 'NONE', *, *, #147, .T. ) ;
#29 = ORIENTED_EDGE ( 'NONE', *, *, #143, .T. ) ;
#30 = ORIENTED_EDGE ( 'NONE', *, *, #159, .T. ) ;
#31 = ORIENTED_EDGE ( 'NONE', *, *, #157, .T. ) ;
#32 = ORIENTED_EDGE ( 'NONE', *, *, #150, .T. ) ;
#33 = ADVANCED_FACE ( 'NONE', ( #58 ), #208, .T. ) ;
#34 = ADVANCED_FACE ( 'NONE', ( #57 ), #216, .F. ) ;
#35 = ADVANCED_FACE ( 'NONE', ( #62 ), #234, .T. ) ;
#36 = ADVANCED_FACE ( 'NONE', ( #56 ), #53, .F. ) ;
#37 = ADVANCED_FACE ( 'NONE', ( #60 ), #50, .F. ) ;
#38 = ADVANCED_FACE ( 'NONE', ( #48, #61, #59 ), #248, .F. ) ;
#39 = ADVANCED_FACE ( 'NONE', ( #52 ), #54, .F. ) ;
#40 = ADVANCED_FACE ( 'NONE', ( #47 ), #253, .T. ) ;
#41 = ADVANCED_FACE ( 'NONE', ( #5 ), #7, .F. ) ;
#42 = ADVANCED_FACE ( 'NONE', ( #3 ), #260, .T. ) ;
#43 = ADVANCED_FACE ( 'NONE', ( #6, #51, #49 ), #263, .T. ) ;
#44 = PRODUCT_DEFINITION_SHAPE ( 'NONE', 'NONE',  #189 ) ;
#45 = DESIGN_CONTEXT ( 'detailed design', #356, 'design' ) ;
#46 = CIRCLE ( 'NONE', #144, 9.999999999999992900 ) ;
#47 = FACE_OUTER_BOUND ( 'NONE', #411, .T. ) ;
#48 = FACE_BOUND ( 'NONE', #417, .T. ) ;
#49 = FACE_OUTER_BOUND ( 'NONE', #416, .T. ) ;
#50 = CYLINDRICAL_SURFACE ( 'NONE', #177, 9.999999999999994700 ) ;
#51 = FACE_BOUND ( 'NONE', #395, .T. ) ;
#52 = FACE_OUTER_BOUND ( 'NONE', #404, .T. ) ;
#53 = CYLINDRICAL_SURFACE ( 'NONE', #176, 9.999999999999992900 ) ;
#54 = CYLINDRICAL_SURFACE ( 'NONE', #179, 9.999999999999994700 ) ;
#55 = LINE ( 'NONE', #269, #4 ) ;
#56 = FACE_OUTER_BOUND ( 'NONE', #397, .T. ) ;
#57 = FACE_OUTER_BOUND ( 'NONE', #401, .T. ) ;
#58 = FACE_OUTER_BOUND ( 'NONE', #409, .T. ) ;
#59 = FACE_OUTER_BOUND ( 'NONE', #405, .T. ) ;
#60 = FACE_OUTER_BOUND ( 'NONE', #393, .T. ) ;
#61 = FACE_BOUND ( 'NONE', #403, .T. ) ;
#62 = FACE_OUTER_BOUND ( 'NONE', #407, .T. ) ;
#63 = MANIFOLD_SOLID_BREP ( 'Cut-Extrude1', #398 ) ;
#64 = UNCERTAINTY_MEASURE_WITH_UNIT (LENGTH_MEASURE( 1.000000000000000100E-005 ), #347, 'distance_accuracy_value', 'NONE');
#65 = ADVANCED_BREP_SHAPE_REPRESENTATION ( 'Raiser', ( #63, #190 ), #105 ) ;
#66 = PRODUCT ( 'Raiser', 'Raiser', '', ( #354 ) ) ;
#67 = PERSON ( 'UNSPECIFIED', 'UNSPECIFIED', 'UNSPECIFIED', ('UNSPECIFIED'), ('UNSPECIFIED'), ('UNSPECIFIED') ) ;
#68 = LINE ( 'NONE', #289, #78 ) ;
#69 = VECTOR ( 'NONE', #278, 1000.000000000000000 ) ;
#70 = VECTOR ( 'NONE', #286, 1000.000000000000000 ) ;
#71 = CIRCLE ( 'NONE', #145, 9.999999999999994700 ) ;
#72 = LINE ( 'NONE', #279, #70 ) ;
#73 = CIRCLE ( 'NONE', #142, 9.999999999999992900 ) ;
#74 = LINE ( 'NONE', #291, #80 ) ;
#75 = LINE ( 'NONE', #275, #77 ) ;
#76 = CIRCLE ( 'NONE', #185, 9.999999999999994700 ) ;
#77 = VECTOR ( 'NONE', #290, 1000.000000000000000 ) ;
#78 = VECTOR ( 'NONE', #292, 1000.000000000000000 ) ;
#79 = LINE ( 'NONE', #297, #88 ) ;
#80 = VECTOR ( 'NONE', #294, 1000.000000000000000 ) ;
#81 = LINE ( 'NONE', #301, #93 ) ;
#82 = LINE ( 'NONE', #295, #83 ) ;
#83 = VECTOR ( 'NONE', #296, 1000.000000000000000 ) ;
#84 = VECTOR ( 'NONE', #298, 1000.000000000000000 ) ;
#85 = LINE ( 'NONE', #307, #94 ) ;
#86 = LINE ( 'NONE', #299, #87 ) ;
#87 = VECTOR ( 'NONE', #300, 1000.000000000000000 ) ;
#88 = VECTOR ( 'NONE', #302, 1000.000000000000000 ) ;
#89 = LINE ( 'NONE', #303, #90 ) ;
#90 = VECTOR ( 'NONE', #304, 1000.000000000000000 ) ;
#91 = LINE ( 'NONE', #305, #92 ) ;
#92 = VECTOR ( 'NONE', #306, 1000.000000000000000 ) ;
#93 = VECTOR ( 'NONE', #309, 1000.000000000000000 ) ;
#94 = VECTOR ( 'NONE', #311, 1000.000000000000000 ) ;
#95 = LINE ( 'NONE', #312, #96 ) ;
#96 = VECTOR ( 'NONE', #313, 1000.000000000000000 ) ;
#97 = LINE ( 'NONE', #314, #98 ) ;
#98 = VECTOR ( 'NONE', #315, 1000.000000000000000 ) ;
#99 = LINE ( 'NONE', #316, #100 ) ;
#100 = VECTOR ( 'NONE', #317, 1000.000000000000000 ) ;
#101 = CIRCLE ( 'NONE', #146, 9.999999999999992900 ) ;
#102 = CIRCLE ( 'NONE', #184, 9.999999999999994700 ) ;
#103 = CIRCLE ( 'NONE', #187, 9.999999999999992900 ) ;
#104 = CIRCLE ( 'NONE', #188, 9.999999999999994700 ) ;
#105 =( GEOMETRIC_REPRESENTATION_CONTEXT ( 3 ) GLOBAL_UNCERTAINTY_ASSIGNED_CONTEXT ( ( #64 ) ) GLOBAL_UNIT_ASSIGNED_CONTEXT ( ( #347, #348, #349 ) ) REPRESENTATION_CONTEXT ( 'NONE', 'WORKASPACE' ) );
#106 = SHAPE_DEFINITION_REPRESENTATION ( #44, #65 ) ;
#107 = ORGANIZATION ( 'UNSPECIFIED', 'UNSPECIFIED', '' ) ;
#108 = PERSON_AND_ORGANIZATION ( #67, #107 ) ;
#109 = PERSON_AND_ORGANIZATION ( #67, #107 ) ;
#110 = APPROVAL_PERSON_ORGANIZATION ( #109, #192, #359 ) ;
#111 = COORDINATED_UNIVERSAL_TIME_OFFSET ( 6, 0, .BEHIND. ) ;
#112 = LOCAL_TIME ( 13, 48, 34.00000000000000000, #111 ) ;
#113 = CALENDAR_DATE ( 2012, 26, 6 ) ;
#114 = DATE_AND_TIME ( #113, #112 ) ;
#115 = APPROVAL_DATE_TIME ( #114, #192 ) ;
#116 = PERSON_AND_ORGANIZATION ( #67, #107 ) ;
#117 = COORDINATED_UNIVERSAL_TIME_OFFSET ( 6, 0, .BEHIND. ) ;
#118 = LOCAL_TIME ( 13, 48, 34.00000000000000000, #117 ) ;
#119 = CALENDAR_DATE ( 2012, 26, 6 ) ;
#120 = DATE_AND_TIME ( #119, #118 ) ;
#121 = PERSON_AND_ORGANIZATION ( #67, #107 ) ;
#122 = APPROVAL_PERSON_ORGANIZATION ( #121, #196, #363 ) ;
#123 = COORDINATED_UNIVERSAL_TIME_OFFSET ( 6, 0, .BEHIND. ) ;
#124 = LOCAL_TIME ( 13, 48, 34.00000000000000000, #123 ) ;
#125 = CALENDAR_DATE ( 2012, 26, 6 ) ;
#126 = DATE_AND_TIME ( #125, #124 ) ;
#127 = APPROVAL_DATE_TIME ( #126, #196 ) ;
#128 = PERSON_AND_ORGANIZATION ( #67, #107 ) ;
#129 = PERSON_AND_ORGANIZATION ( #67, #107 ) ;
#130 = PERSON_AND_ORGANIZATION ( #67, #107 ) ;
#131 = COORDINATED_UNIVERSAL_TIME_OFFSET ( 6, 0, .BEHIND. ) ;
#132 = LOCAL_TIME ( 13, 48, 34.00000000000000000, #131 ) ;
#133 = CALENDAR_DATE ( 2012, 26, 6 ) ;
#134 = DATE_AND_TIME ( #133, #132 ) ;
#135 = PERSON_AND_ORGANIZATION ( #67, #107 ) ;
#136 = APPROVAL_PERSON_ORGANIZATION ( #135, #203, #370 ) ;
#137 = COORDINATED_UNIVERSAL_TIME_OFFSET ( 6, 0, .BEHIND. ) ;
#138 = LOCAL_TIME ( 13, 48, 34.00000000000000000, #137 ) ;
#139 = CALENDAR_DATE ( 2012, 26, 6 ) ;
#140 = DATE_AND_TIME ( #139, #138 ) ;
#141 = APPROVAL_DATE_TIME ( #140, #203 ) ;
#142 = AXIS2_PLACEMENT_3D ( 'NONE', #282, #283, #284 ) ;
#143 = EDGE_CURVE ( 'NONE', #220, #227, #418, .T. ) ;
#144 = AXIS2_PLACEMENT_3D ( 'NONE', #271, #272, #273 ) ;
#145 = AXIS2_PLACEMENT_3D ( 'NONE', #277, #280, #281 ) ;
#146 = AXIS2_PLACEMENT_3D ( 'NONE', #310, #319, #320 ) ;
#147 = EDGE_CURVE ( 'NONE', #219, #220, #1, .T. ) ;
#148 = EDGE_CURVE ( 'NONE', #229, #223, #46, .T. ) ;
#149 = EDGE_CURVE ( 'NONE', #228, #223, #55, .T. ) ;
#150 = EDGE_CURVE ( 'NONE', #209, #229, #371, .T. ) ;
#151 = EDGE_CURVE ( 'NONE', #225, #218, #71, .T. ) ;
#152 = EDGE_CURVE ( 'NONE', #209, #228, #73, .T. ) ;
#153 = EDGE_CURVE ( 'NONE', #211, #225, #72, .T. ) ;
#154 = EDGE_CURVE ( 'NONE', #211, #226, #76, .T. ) ;
#155 = EDGE_CURVE ( 'NONE', #226, #218, #75, .T. ) ;
#156 = EDGE_CURVE ( 'NONE', #221, #217, #68, .T. ) ;
#157 = EDGE_CURVE ( 'NONE', #220, #224, #74, .T. ) ;
#158 = EDGE_CURVE ( 'NONE', #224, #210, #82, .T. ) ;
#159 = EDGE_CURVE ( 'NONE', #227, #210, #207, .T. ) ;
#160 = EDGE_CURVE ( 'NONE', #221, #219, #86, .T. ) ;
#161 = EDGE_CURVE ( 'NONE', #219, #222, #79, .T. ) ;
#162 = EDGE_CURVE ( 'NONE', #222, #224, #89, .T. ) ;
#163 = EDGE_CURVE ( 'NONE', #227, #217, #91, .T. ) ;
#164 = EDGE_CURVE ( 'NONE', #221, #213, #81, .T. ) ;
#165 = EDGE_CURVE ( 'NONE', #213, #222, #85, .T. ) ;
#166 = EDGE_CURVE ( 'NONE', #217, #212, #95, .T. ) ;
#167 = EDGE_CURVE ( 'NONE', #213, #212, #97, .T. ) ;
#168 = EDGE_CURVE ( 'NONE', #210, #212, #99, .T. ) ;
#169 = EDGE_CURVE ( 'NONE', #223, #229, #101, .T. ) ;
#170 = EDGE_CURVE ( 'NONE', #218, #225, #102, .T. ) ;
#171 = EDGE_CURVE ( 'NONE', #228, #209, #103, .T. ) ;
#172 = EDGE_CURVE ( 'NONE', #226, #211, #104, .T. ) ;
#173 = AXIS2_PLACEMENT_3D ( 'NONE', #214, #231, #232 ) ;
#174 = AXIS2_PLACEMENT_3D ( 'NONE', #215, #235, #236 ) ;
#175 = AXIS2_PLACEMENT_3D ( 'NONE', #230, #239, #240 ) ;
#176 = AXIS2_PLACEMENT_3D ( 'NONE', #237, #238, #233 ) ;
#177 = AXIS2_PLACEMENT_3D ( 'NONE', #244, #243, #241 ) ;
#178 = AXIS2_PLACEMENT_3D ( 'NONE', #247, #249, #250 ) ;
#179 = AXIS2_PLACEMENT_3D ( 'NONE', #246, #242, #245 ) ;
#180 = AXIS2_PLACEMENT_3D ( 'NONE', #251, #256, #257 ) ;
#181 = AXIS2_PLACEMENT_3D ( 'NONE', #252, #255, #254 ) ;
#182 = AXIS2_PLACEMENT_3D ( 'NONE', #258, #261, #262 ) ;
#183 = AXIS2_PLACEMENT_3D ( 'NONE', #259, #264, #265 ) ;
#184 = AXIS2_PLACEMENT_3D ( 'NONE', #308, #322, #323 ) ;
#185 = AXIS2_PLACEMENT_3D ( 'NONE', #285, #287, #288 ) ;
#186 = CC_DESIGN_PERSON_AND_ORGANIZATION_ASSIGNMENT ( #116, #360, ( #189 ) ) ;
#187 = AXIS2_PLACEMENT_3D ( 'NONE', #318, #325, #326 ) ;
#188 = AXIS2_PLACEMENT_3D ( 'NONE', #321, #329, #330 ) ;
#189 = PRODUCT_DEFINITION ( 'UNKNOWN', '', #194, #45 ) ;
#190 = AXIS2_PLACEMENT_3D ( 'NONE', #350, #346, #351 ) ;
#191 = CC_DESIGN_APPROVAL ( #192, ( #189 ) ) ;
#192 = APPROVAL ( #358, 'UNSPECIFIED' ) ;
#193 = CC_DESIGN_PERSON_AND_ORGANIZATION_ASSIGNMENT ( #108, #355, ( #66 ) ) ;
#194 = PRODUCT_DEFINITION_FORMATION_WITH_SPECIFIED_SOURCE ( 'ANY', '', #66, .NOT_KNOWN. ) ;
#195 = CC_DESIGN_DATE_AND_TIME_ASSIGNMENT ( #120, #361, ( #189 ) ) ;
#196 = APPROVAL ( #362, 'UNSPECIFIED' ) ;
#197 = CC_DESIGN_APPROVAL ( #196, ( #194 ) ) ;
#198 = CC_DESIGN_PERSON_AND_ORGANIZATION_ASSIGNMENT ( #128, #364, ( #194 ) ) ;
#199 = CC_DESIGN_PERSON_AND_ORGANIZATION_ASSIGNMENT ( #129, #365, ( #194 ) ) ;
#200 = SECURITY_CLASSIFICATION ( '', '', #366 ) ;
#201 = CC_DESIGN_PERSON_AND_ORGANIZATION_ASSIGNMENT ( #130, #367, ( #200 ) ) ;
#202 = CC_DESIGN_DATE_AND_TIME_ASSIGNMENT ( #134, #368, ( #200 ) ) ;
#203 = APPROVAL ( #369, 'UNSPECIFIED' ) ;
#204 = CC_DESIGN_APPROVAL ( #203, ( #200 ) ) ;
#205 = CC_DESIGN_SECURITY_CLASSIFICATION ( #200, ( #194 ) ) ;
#206 = PRODUCT_RELATED_PRODUCT_CATEGORY ( 'detail', '', ( #66 ) ) ;
#207 = LINE ( 'NONE', #293, #84 ) ;
#208 = PLANE ( 'NONE',  #173 ) ;
#209 = VERTEX_POINT ( 'NONE', #327 ) ;
#210 = VERTEX_POINT ( 'NONE', #328 ) ;
#211 = VERTEX_POINT ( 'NONE', #331 ) ;
#212 = VERTEX_POINT ( 'NONE', #332 ) ;
#213 = VERTEX_POINT ( 'NONE', #333 ) ;
#214 = CARTESIAN_POINT ( 'NONE',  ( 0.0000000000000000000, 25.39999999999999900, -38.09999999999999400 ) ) ;
#215 = CARTESIAN_POINT ( 'NONE',  ( -50.70767389289515800, 25.39999999999999900, 0.0000000000000000000 ) ) ;
#216 = PLANE ( 'NONE',  #174 ) ;
#217 = VERTEX_POINT ( 'NONE', #334 ) ;
#218 = VERTEX_POINT ( 'NONE', #324 ) ;
#219 = VERTEX_POINT ( 'NONE', #335 ) ;
#220 = VERTEX_POINT ( 'NONE', #336 ) ;
#221 = VERTEX_POINT ( 'NONE', #337 ) ;
#222 = VERTEX_POINT ( 'NONE', #338 ) ;
#223 = VERTEX_POINT ( 'NONE', #339 ) ;
#224 = VERTEX_POINT ( 'NONE', #340 ) ;
#225 = VERTEX_POINT ( 'NONE', #341 ) ;
#226 = VERTEX_POINT ( 'NONE', #342 ) ;
#227 = VERTEX_POINT ( 'NONE', #343 ) ;
#228 = VERTEX_POINT ( 'NONE', #344 ) ;
#229 = VERTEX_POINT ( 'NONE', #345 ) ;
#230 = CARTESIAN_POINT ( 'NONE',  ( 34.64616305355239200, 25.39999999999999900, -123.4538369464475900 ) ) ;
#231 = DIRECTION ( 'NONE',  ( -1.000000000000000000, 0.0000000000000000000, 0.0000000000000000000 ) ) ;
#232 = DIRECTION ( 'NONE',  ( 0.0000000000000000000, 0.0000000000000000000, 1.000000000000000000 ) ) ;
#233 = DIRECTION ( 'NONE',  ( 0.0000000000000000000, 0.0000000000000000000, 1.000000000000000000 ) ) ;
#234 = PLANE ( 'NONE',  #175 ) ;
#235 = DIRECTION ( 'NONE',  ( 0.0000000000000000000, 0.0000000000000000000, -1.000000000000000000 ) ) ;
#236 = DIRECTION ( 'NONE',  ( -1.000000000000000000, 0.0000000000000000000, -0.0000000000000000000 ) ) ;
#237 = CARTESIAN_POINT ( 'NONE',  ( 74.99999999999998600, 0.0000000000000000000, -13.10000000000003500 ) ) ;
#238 = DIRECTION ( 'NONE',  ( -0.0000000000000000000, 1.000000000000000000, -0.0000000000000000000 ) ) ;
#239 = DIRECTION ( 'NONE',  ( 0.7071067811865472400, 0.0000000000000000000, -0.7071067811865479100 ) ) ;
#240 = DIRECTION ( 'NONE',  ( -0.7071067811865479100, 0.0000000000000000000, -0.7071067811865472400 ) ) ;
#241 = DIRECTION ( 'NONE',  ( 0.0000000000000000000, 0.0000000000000000000, 1.000000000000000000 ) ) ;
#242 = DIRECTION ( 'NONE',  ( -0.0000000000000000000, 1.000000000000000000, -0.0000000000000000000 ) ) ;
#243 = DIRECTION ( 'NONE',  ( -0.0000000000000000000, 1.000000000000000000, -0.0000000000000000000 ) ) ;
#244 = CARTESIAN_POINT ( 'NONE',  ( 75.00000000000000000, 0.0000000000000000000, -63.10000000000004400 ) ) ;
#245 = DIRECTION ( 'NONE',  ( 0.0000000000000000000, 0.0000000000000000000, 1.000000000000000000 ) ) ;
#246 = CARTESIAN_POINT ( 'NONE',  ( 75.00000000000000000, 0.0000000000000000000, -63.10000000000004400 ) ) ;
#247 = CARTESIAN_POINT ( 'NONE',  ( -50.70767389289515800, 0.0000000000000000000, -38.09999999999999400 ) ) ;
#248 = PLANE ( 'NONE',  #178 ) ;
#249 = DIRECTION ( 'NONE',  ( 0.0000000000000000000, 1.000000000000000000, -0.0000000000000000000 ) ) ;
#250 = DIRECTION ( 'NONE',  ( 0.0000000000000000000, 0.0000000000000000000, 1.000000000000000000 ) ) ;
#251 = CARTESIAN_POINT ( 'NONE',  ( -50.70767389289515800, 25.39999999999999900, -76.20000000000000300 ) ) ;
#252 = CARTESIAN_POINT ( 'NONE',  ( 74.99999999999998600, 0.0000000000000000000, -13.10000000000003500 ) ) ;
#253 = PLANE ( 'NONE',  #180 ) ;
#254 = DIRECTION ( 'NONE',  ( 0.0000000000000000000, 0.0000000000000000000, 1.000000000000000000 ) ) ;
#255 = DIRECTION ( 'NONE',  ( -0.0000000000000000000, 1.000000000000000000, -0.0000000000000000000 ) ) ;
#256 = DIRECTION ( 'NONE',  ( 0.0000000000000000000, 0.0000000000000000000, -1.000000000000000000 ) ) ;
#257 = DIRECTION ( 'NONE',  ( -1.000000000000000000, 0.0000000000000000000, -0.0000000000000000000 ) ) ;
#258 = CARTESIAN_POINT ( 'NONE',  ( 34.64616305355233500, 25.39999999999999900, 47.25383694644757800 ) ) ;
#259 = CARTESIAN_POINT ( 'NONE',  ( -50.70767389289515800, 25.39999999999999900, -38.09999999999999400 ) ) ;
#260 = PLANE ( 'NONE',  #182 ) ;
#261 = DIRECTION ( 'NONE',  ( 0.7071067811865472400, -0.0000000000000000000, 0.7071067811865479100 ) ) ;
#262 = DIRECTION ( 'NONE',  ( 0.7071067811865479100, 0.0000000000000000000, -0.7071067811865472400 ) ) ;
#263 = PLANE ( 'NONE',  #183 ) ;
#264 = DIRECTION ( 'NONE',  ( 0.0000000000000000000, 1.000000000000000000, -0.0000000000000000000 ) ) ;
#265 = DIRECTION ( 'NONE',  ( 0.0000000000000000000, 0.0000000000000000000, 1.000000000000000000 ) ) ;
#266 = CARTESIAN_POINT ( 'NONE',  ( -50.70767389289515800, 25.39999999999999900, -76.20000000000000300 ) ) ;
#267 = CARTESIAN_POINT ( 'NONE',  ( 34.64616305355239200, 25.39999999999999900, -123.4538369464475900 ) ) ;
#268 = DIRECTION ( 'NONE',  ( 0.7071067811865477900, 0.0000000000000000000, 0.7071067811865473500 ) ) ;
#269 = CARTESIAN_POINT ( 'NONE',  ( 74.99999999999998600, 0.0000000000000000000, -3.100000000000041800 ) ) ;
#270 = DIRECTION ( 'NONE',  ( 1.000000000000000000, 0.0000000000000000000, 0.0000000000000000000 ) ) ;
#271 = CARTESIAN_POINT ( 'NONE',  ( 74.99999999999998600, 25.39999999999999900, -13.10000000000003500 ) ) ;
#272 = DIRECTION ( 'NONE',  ( 0.0000000000000000000, 1.000000000000000000, 0.0000000000000000000 ) ) ;
#273 = DIRECTION ( 'NONE',  ( 0.0000000000000000000, 0.0000000000000000000, 1.000000000000000000 ) ) ;
#274 = CARTESIAN_POINT ( 'NONE',  ( 74.99999999999998600, 0.0000000000000000000, -23.10000000000003000 ) ) ;
#275 = CARTESIAN_POINT ( 'NONE',  ( 75.00000000000000000, 0.0000000000000000000, -53.10000000000005100 ) ) ;
#276 = DIRECTION ( 'NONE',  ( -0.0000000000000000000, 1.000000000000000000, -0.0000000000000000000 ) ) ;
#277 = CARTESIAN_POINT ( 'NONE',  ( 75.00000000000000000, 25.39999999999999900, -63.10000000000004400 ) ) ;
#278 = DIRECTION ( 'NONE',  ( -0.0000000000000000000, 1.000000000000000000, -0.0000000000000000000 ) ) ;
#279 = CARTESIAN_POINT ( 'NONE',  ( 75.00000000000000000, 0.0000000000000000000, -73.10000000000003700 ) ) ;
#280 = DIRECTION ( 'NONE',  ( 0.0000000000000000000, 1.000000000000000000, 0.0000000000000000000 ) ) ;
#281 = DIRECTION ( 'NONE',  ( 0.0000000000000000000, 0.0000000000000000000, 1.000000000000000000 ) ) ;
#282 = CARTESIAN_POINT ( 'NONE',  ( 74.99999999999998600, 0.0000000000000000000, -13.10000000000003500 ) ) ;
#283 = DIRECTION ( 'NONE',  ( 0.0000000000000000000, 1.000000000000000000, 0.0000000000000000000 ) ) ;
#284 = DIRECTION ( 'NONE',  ( 0.0000000000000000000, 0.0000000000000000000, 1.000000000000000000 ) ) ;
#285 = CARTESIAN_POINT ( 'NONE',  ( 75.00000000000000000, 0.0000000000000000000, -63.10000000000004400 ) ) ;
#286 = DIRECTION ( 'NONE',  ( -0.0000000000000000000, 1.000000000000000000, -0.0000000000000000000 ) ) ;
#287 = DIRECTION ( 'NONE',  ( 0.0000000000000000000, 1.000000000000000000, 0.0000000000000000000 ) ) ;
#288 = DIRECTION ( 'NONE',  ( 0.0000000000000000000, 0.0000000000000000000, 1.000000000000000000 ) ) ;
#289 = CARTESIAN_POINT ( 'NONE',  ( -50.70767389289515800, 25.39999999999999900, 0.0000000000000000000 ) ) ;
#290 = DIRECTION ( 'NONE',  ( -0.0000000000000000000, 1.000000000000000000, -0.0000000000000000000 ) ) ;
#291 = CARTESIAN_POINT ( 'NONE',  ( 81.90000000000002000, 25.39999999999999900, -76.20000000000000300 ) ) ;
#292 = DIRECTION ( 'NONE',  ( 1.000000000000000000, 0.0000000000000000000, 0.0000000000000000000 ) ) ;
#293 = CARTESIAN_POINT ( 'NONE',  ( 120.0000000000000000, 25.39999999999999900, -38.10000000000005100 ) ) ;
#294 = DIRECTION ( 'NONE',  ( -0.0000000000000000000, -1.000000000000000000, -0.0000000000000000000 ) ) ;
#295 = CARTESIAN_POINT ( 'NONE',  ( 34.64616305355239200, 0.0000000000000000000, -123.4538369464475900 ) ) ;
#296 = DIRECTION ( 'NONE',  ( 0.7071067811865477900, 0.0000000000000000000, 0.7071067811865473500 ) ) ;
#297 = CARTESIAN_POINT ( 'NONE',  ( 0.0000000000000000000, 25.39999999999999900, -76.20000000000000300 ) ) ;
#298 = DIRECTION ( 'NONE',  ( -0.0000000000000000000, -1.000000000000000000, -0.0000000000000000000 ) ) ;
#299 = CARTESIAN_POINT ( 'NONE',  ( 0.0000000000000000000, 25.39999999999999900, -38.09999999999999400 ) ) ;
#300 = DIRECTION ( 'NONE',  ( 0.0000000000000000000, 0.0000000000000000000, -1.000000000000000000 ) ) ;
#301 = CARTESIAN_POINT ( 'NONE',  ( 0.0000000000000000000, 25.39999999999999900, 0.0000000000000000000 ) ) ;
#302 = DIRECTION ( 'NONE',  ( -0.0000000000000000000, -1.000000000000000000, -0.0000000000000000000 ) ) ;
#303 = CARTESIAN_POINT ( 'NONE',  ( -50.70767389289515800, 0.0000000000000000000, -76.20000000000000300 ) ) ;
#304 = DIRECTION ( 'NONE',  ( 1.000000000000000000, 0.0000000000000000000, 0.0000000000000000000 ) ) ;
#305 = CARTESIAN_POINT ( 'NONE',  ( 34.64616305355233500, 25.39999999999999900, 47.25383694644757800 ) ) ;
#306 = DIRECTION ( 'NONE',  ( -0.7071067811865479100, 0.0000000000000000000, 0.7071067811865472400 ) ) ;
#307 = CARTESIAN_POINT ( 'NONE',  ( 0.0000000000000000000, 0.0000000000000000000, -38.09999999999999400 ) ) ;
#308 = CARTESIAN_POINT ( 'NONE',  ( 75.00000000000000000, 25.39999999999999900, -63.10000000000004400 ) ) ;
#309 = DIRECTION ( 'NONE',  ( -0.0000000000000000000, -1.000000000000000000, -0.0000000000000000000 ) ) ;
#310 = CARTESIAN_POINT ( 'NONE',  ( 74.99999999999998600, 25.39999999999999900, -13.10000000000003500 ) ) ;
#311 = DIRECTION ( 'NONE',  ( 0.0000000000000000000, 0.0000000000000000000, -1.000000000000000000 ) ) ;
#312 = CARTESIAN_POINT ( 'NONE',  ( 81.89999999999994900, 25.39999999999999900, 0.0000000000000000000 ) ) ;
#313 = DIRECTION ( 'NONE',  ( -0.0000000000000000000, -1.000000000000000000, -0.0000000000000000000 ) ) ;
#314 = CARTESIAN_POINT ( 'NONE',  ( -50.70767389289515800, 0.0000000000000000000, 0.0000000000000000000 ) ) ;
#315 = DIRECTION ( 'NONE',  ( 1.000000000000000000, 0.0000000000000000000, 0.0000000000000000000 ) ) ;
#316 = CARTESIAN_POINT ( 'NONE',  ( 34.64616305355233500, 0.0000000000000000000, 47.25383694644757800 ) ) ;
#317 = DIRECTION ( 'NONE',  ( -0.7071067811865479100, 0.0000000000000000000, 0.7071067811865472400 ) ) ;
#318 = CARTESIAN_POINT ( 'NONE',  ( 74.99999999999998600, 0.0000000000000000000, -13.10000000000003500 ) ) ;
#319 = DIRECTION ( 'NONE',  ( 0.0000000000000000000, 1.000000000000000000, 0.0000000000000000000 ) ) ;
#320 = DIRECTION ( 'NONE',  ( 0.0000000000000000000, 0.0000000000000000000, 1.000000000000000000 ) ) ;
#321 = CARTESIAN_POINT ( 'NONE',  ( 75.00000000000000000, 0.0000000000000000000, -63.10000000000004400 ) ) ;
#322 = DIRECTION ( 'NONE',  ( 0.0000000000000000000, 1.000000000000000000, 0.0000000000000000000 ) ) ;
#323 = DIRECTION ( 'NONE',  ( 0.0000000000000000000, 0.0000000000000000000, 1.000000000000000000 ) ) ;
#324 = CARTESIAN_POINT ( 'NONE',  ( 75.00000000000000000, 25.39999999999999900, -53.10000000000005100 ) ) ;
#325 = DIRECTION ( 'NONE',  ( 0.0000000000000000000, 1.000000000000000000, 0.0000000000000000000 ) ) ;
#326 = DIRECTION ( 'NONE',  ( 0.0000000000000000000, 0.0000000000000000000, 1.000000000000000000 ) ) ;
#327 = CARTESIAN_POINT ( 'NONE',  ( 74.99999999999998600, 0.0000000000000000000, -23.10000000000003000 ) ) ;
#328 = CARTESIAN_POINT ( 'NONE',  ( 120.0000000000000000, 0.0000000000000000000, -38.10000000000005100 ) ) ;
#329 = DIRECTION ( 'NONE',  ( 0.0000000000000000000, 1.000000000000000000, 0.0000000000000000000 ) ) ;
#330 = DIRECTION ( 'NONE',  ( 0.0000000000000000000, 0.0000000000000000000, 1.000000000000000000 ) ) ;
#331 = CARTESIAN_POINT ( 'NONE',  ( 75.00000000000000000, 0.0000000000000000000, -73.10000000000003700 ) ) ;
#332 = CARTESIAN_POINT ( 'NONE',  ( 81.89999999999994900, 0.0000000000000000000, 0.0000000000000000000 ) ) ;
#333 = CARTESIAN_POINT ( 'NONE',  ( 0.0000000000000000000, 0.0000000000000000000, 0.0000000000000000000 ) ) ;
#334 = CARTESIAN_POINT ( 'NONE',  ( 81.89999999999994900, 25.39999999999999900, 0.0000000000000000000 ) ) ;
#335 = CARTESIAN_POINT ( 'NONE',  ( 0.0000000000000000000, 25.39999999999999900, -76.20000000000000300 ) ) ;
#336 = CARTESIAN_POINT ( 'NONE',  ( 81.90000000000002000, 25.39999999999999900, -76.20000000000000300 ) ) ;
#337 = CARTESIAN_POINT ( 'NONE',  ( 0.0000000000000000000, 25.39999999999999900, 0.0000000000000000000 ) ) ;
#338 = CARTESIAN_POINT ( 'NONE',  ( 0.0000000000000000000, 0.0000000000000000000, -76.20000000000000300 ) ) ;
#339 = CARTESIAN_POINT ( 'NONE',  ( 74.99999999999998600, 25.39999999999999900, -3.100000000000041800 ) ) ;
#340 = CARTESIAN_POINT ( 'NONE',  ( 81.90000000000002000, 0.0000000000000000000, -76.20000000000000300 ) ) ;
#341 = CARTESIAN_POINT ( 'NONE',  ( 75.00000000000000000, 25.39999999999999900, -73.10000000000003700 ) ) ;
#342 = CARTESIAN_POINT ( 'NONE',  ( 75.00000000000000000, 0.0000000000000000000, -53.10000000000005100 ) ) ;
#343 = CARTESIAN_POINT ( 'NONE',  ( 120.0000000000000000, 25.39999999999999900, -38.10000000000005100 ) ) ;
#344 = CARTESIAN_POINT ( 'NONE',  ( 74.99999999999998600, 0.0000000000000000000, -3.100000000000041800 ) ) ;
#345 = CARTESIAN_POINT ( 'NONE',  ( 74.99999999999998600, 25.39999999999999900, -23.10000000000003000 ) ) ;
#346 = DIRECTION ( 'NONE',  ( 0.0000000000000000000, 0.0000000000000000000, 1.000000000000000000 ) ) ;
#347 =( LENGTH_UNIT ( ) NAMED_UNIT ( * ) SI_UNIT ( .MILLI., .METRE. ) );
#348 =( NAMED_UNIT ( * ) PLANE_ANGLE_UNIT ( ) SI_UNIT ( $, .RADIAN. ) );
#349 =( NAMED_UNIT ( * ) SI_UNIT ( $, .STERADIAN. ) SOLID_ANGLE_UNIT ( ) );
#350 = CARTESIAN_POINT ( 'NONE',  ( 0.0000000000000000000, 0.0000000000000000000, 0.0000000000000000000 ) ) ;
#351 = DIRECTION ( 'NONE',  ( 1.000000000000000000, 0.0000000000000000000, 0.0000000000000000000 ) ) ;
#352 = APPLICATION_CONTEXT ( 'configuration controlled 3d designs of mechanical parts and assemblies' ) ;
#353 = APPLICATION_PROTOCOL_DEFINITION ( 'international standard', 'config_control_design', 1994, #352 ) ;
#354 = MECHANICAL_CONTEXT ( 'NONE', #352, 'mechanical' ) ;
#355 = PERSON_AND_ORGANIZATION_ROLE ( 'design_owner' ) ;
#356 = APPLICATION_CONTEXT ( 'configuration controlled 3d designs of mechanical parts and assemblies' ) ;
#357 = APPLICATION_PROTOCOL_DEFINITION ( 'international standard', 'config_control_design', 1994, #356 ) ;
#358 = APPROVAL_STATUS ( 'not_yet_approved' ) ;
#359 = APPROVAL_ROLE ( '' ) ;
#360 = PERSON_AND_ORGANIZATION_ROLE ( 'creator' ) ;
#361 = DATE_TIME_ROLE ( 'creation_date' ) ;
#362 = APPROVAL_STATUS ( 'not_yet_approved' ) ;
#363 = APPROVAL_ROLE ( '' ) ;
#364 = PERSON_AND_ORGANIZATION_ROLE ( 'creator' ) ;
#365 = PERSON_AND_ORGANIZATION_ROLE ( 'design_supplier' ) ;
#366 = SECURITY_CLASSIFICATION_LEVEL ( 'unclassified' ) ;
#367 = PERSON_AND_ORGANIZATION_ROLE ( 'classification_officer' ) ;
#368 = DATE_TIME_ROLE ( 'classification_date' ) ;
#369 = APPROVAL_STATUS ( 'not_yet_approved' ) ;
#370 = APPROVAL_ROLE ( '' ) ;
#371 = LINE ( 'NONE', #274, #69 ) ;
#372 = ORIENTED_EDGE ( 'NONE', *, *, #159, .F. ) ;
#373 = ORIENTED_EDGE ( 'NONE', *, *, #172, .T. ) ;
#374 = ORIENTED_EDGE ( 'NONE', *, *, #155, .T. ) ;
#375 = ORIENTED_EDGE ( 'NONE', *, *, #171, .F. ) ;
#376 = ORIENTED_EDGE ( 'NONE', *, *, #172, .F. ) ;
#377 = ORIENTED_EDGE ( 'NONE', *, *, #162, .F. ) ;
#378 = ORIENTED_EDGE ( 'NONE', *, *, #169, .T. ) ;
#379 = ORIENTED_EDGE ( 'NONE', *, *, #158, .T. ) ;
#380 = ORIENTED_EDGE ( 'NONE', *, *, #170, .T. ) ;
#381 = ORIENTED_EDGE ( 'NONE', *, *, #163, .T. ) ;
#382 = ORIENTED_EDGE ( 'NONE', *, *, #150, .F. ) ;
#383 = ORIENTED_EDGE ( 'NONE', *, *, #168, .T. ) ;
#384 = ORIENTED_EDGE ( 'NONE', *, *, #164, .T. ) ;
#385 = ORIENTED_EDGE ( 'NONE', *, *, #162, .T. ) ;
#386 = ORIENTED_EDGE ( 'NONE', *, *, #152, .T. ) ;
#387 = ORIENTED_EDGE ( 'NONE', *, *, #154, .T. ) ;
#388 = ORIENTED_EDGE ( 'NONE', *, *, #167, .F. ) ;
#389 = ORIENTED_EDGE ( 'NONE', *, *, #165, .T. ) ;
#390 = ORIENTED_EDGE ( 'NONE', *, *, #153, .F. ) ;
#391 = ORIENTED_EDGE ( 'NONE', *, *, #149, .T. ) ;
#392 = EDGE_LOOP ( 'NONE', ( #382, #375, #391, #378 ) ) ;
#393 = EDGE_LOOP ( 'NONE', ( #390, #376, #374, #380 ) ) ;
#394 = ORIENTED_EDGE ( 'NONE', *, *, #147, .F. ) ;
#395 = EDGE_LOOP ( 'NONE', ( #408, #415 ) ) ;
#396 = VECTOR ( 'NONE', #268, 1000.000000000000000 ) ;
#397 = EDGE_LOOP ( 'NONE', ( #13, #32, #27, #12 ) ) ;
#398 = CLOSED_SHELL ( 'NONE', ( #36, #39, #35, #40, #33, #34, #42, #43, #38, #37, #41 ) ) ;
#399 = EDGE_LOOP ( 'NONE', ( #11, #18 ) ) ;
#400 = ORIENTED_EDGE ( 'NONE', *, *, #143, .F. ) ;
#401 = EDGE_LOOP ( 'NONE', ( #16, #15, #24, #384 ) ) ;
#402 = EDGE_LOOP ( 'NONE', ( #9, #372, #381, #413 ) ) ;
#403 = EDGE_LOOP ( 'NONE', ( #373, #387 ) ) ;
#404 = EDGE_LOOP ( 'NONE', ( #20, #10, #21, #17 ) ) ;
#405 = EDGE_LOOP ( 'NONE', ( #379, #383, #388, #389, #385 ) ) ;
#406 = ORIENTED_EDGE ( 'NONE', *, *, #156, .T. ) ;
#407 = EDGE_LOOP ( 'NONE', ( #25, #22, #29, #30 ) ) ;
#408 = ORIENTED_EDGE ( 'NONE', *, *, #170, .F. ) ;
#409 = EDGE_LOOP ( 'NONE', ( #8, #14, #23, #26 ) ) ;
#410 = ORIENTED_EDGE ( 'NONE', *, *, #163, .F. ) ;
#411 = EDGE_LOOP ( 'NONE', ( #377, #19, #28, #31 ) ) ;
#412 = ORIENTED_EDGE ( 'NONE', *, *, #171, .T. ) ;
#413 = ORIENTED_EDGE ( 'NONE', *, *, #166, .T. ) ;
#414 = ORIENTED_EDGE ( 'NONE', *, *, #160, .F. ) ;
#415 = ORIENTED_EDGE ( 'NONE', *, *, #151, .F. ) ;
#416 = EDGE_LOOP ( 'NONE', ( #400, #394, #414, #406, #410 ) ) ;
#417 = EDGE_LOOP ( 'NONE', ( #412, #386 ) ) ;
#418 = LINE ( 'NONE', #267, #396 ) ;
ENDSEC;
END-ISO-10303-21;
