ISO-10303-21;
HEADER;
FILE_DESCRIPTION (( 'STEP AP203' ),
    '1' );
FILE_NAME ('ShortSpacer.STEP',
    '2012-06-11T23:19:24',
    ( '' ),
    ( '' ),
    'SwSTEP 2.0',
    'SolidWorks 2010',
    '' );
FILE_SCHEMA (( 'CONFIG_CONTROL_DESIGN' ));
ENDSEC;

DATA;
#1 = MANIFOLD_SOLID_BREP ( 'Boss-Extrude1', #96 ) ;
#2 = UNCERTAINTY_MEASURE_WITH_UNIT (LENGTH_MEASURE( 1.000000000000000100E-005 ), #170, 'distance_accuracy_value', 'NONE');
#3 = ADVANCED_BREP_SHAPE_REPRESENTATION ( 'ShortSpacer', ( #1, #215 ), #41 ) ;
#4 = EDGE_LOOP ( 'NONE', ( #10, #99, #11, #8 ) ) ;
#5 = ORIENTED_EDGE ( 'NONE', *, *, #202, .T. ) ;
#6 = ORIENTED_EDGE ( 'NONE', *, *, #204, .T. ) ;
#7 = ORIENTED_EDGE ( 'NONE', *, *, #205, .F. ) ;
#8 = ORIENTED_EDGE ( 'NONE', *, *, #199, .F. ) ;
#9 = ORIENTED_EDGE ( 'NONE', *, *, #207, .F. ) ;
#10 = ORIENTED_EDGE ( 'NONE', *, *, #201, .T. ) ;
#11 = ORIENTED_EDGE ( 'NONE', *, *, #197, .F. ) ;
#12 = LINE ( 'NONE', #134, #19 ) ;
#13 = VECTOR ( 'NONE', #133, 1000.000000000000000 ) ;
#14 = VECTOR ( 'NONE', #125, 1000.000000000000000 ) ;
#15 = ORIENTED_EDGE ( 'NONE', *, *, #206, .F. ) ;
#16 = CIRCLE ( 'NONE', #213, 5.999999999999998200 ) ;
#17 = LINE ( 'NONE', #142, #13 ) ;
#18 = CIRCLE ( 'NONE', #195, 25.39999999999999900 ) ;
#19 = VECTOR ( 'NONE', #131, 1000.000000000000000 ) ;
#20 = LINE ( 'NONE', #126, #14 ) ;
#21 = VECTOR ( 'NONE', #121, 1000.000000000000000 ) ;
#22 = CIRCLE ( 'NONE', #210, 5.999999999999998200 ) ;
#23 = LINE ( 'NONE', #129, #21 ) ;
#24 = CIRCLE ( 'NONE', #209, 25.39999999999999900 ) ;
#25 = FACE_OUTER_BOUND ( 'NONE', #98, .T. ) ;
#26 = CIRCLE ( 'NONE', #212, 25.39999999999999900 ) ;
#27 = FACE_BOUND ( 'NONE', #95, .T. ) ;
#28 = CIRCLE ( 'NONE', #211, 5.999999999999998200 ) ;
#29 = FACE_OUTER_BOUND ( 'NONE', #47, .T. ) ;
#30 = CIRCLE ( 'NONE', #196, 25.39999999999999900 ) ;
#31 = FACE_OUTER_BOUND ( 'NONE', #4, .T. ) ;
#32 = CIRCLE ( 'NONE', #214, 5.999999999999998200 ) ;
#33 = FACE_OUTER_BOUND ( 'NONE', #86, .T. ) ;
#34 = FACE_OUTER_BOUND ( 'NONE', #85, .T. ) ;
#35 = CYLINDRICAL_SURFACE ( 'NONE', #217, 25.39999999999999900 ) ;
#36 = FACE_BOUND ( 'NONE', #87, .T. ) ;
#37 = FACE_OUTER_BOUND ( 'NONE', #80, .T. ) ;
#38 = CYLINDRICAL_SURFACE ( 'NONE', #219, 25.39999999999999900 ) ;
#39 = CYLINDRICAL_SURFACE ( 'NONE', #220, 5.999999999999998200 ) ;
#40 = CYLINDRICAL_SURFACE ( 'NONE', #221, 5.999999999999998200 ) ;
#41 =( GEOMETRIC_REPRESENTATION_CONTEXT ( 3 ) GLOBAL_UNCERTAINTY_ASSIGNED_CONTEXT ( ( #2 ) ) GLOBAL_UNIT_ASSIGNED_CONTEXT ( ( #170, #165, #168 ) ) REPRESENTATION_CONTEXT ( 'NONE', 'WORKASPACE' ) );
#42 = SHAPE_DEFINITION_REPRESENTATION ( #249, #3 ) ;
#43 = ORGANIZATION ( 'UNSPECIFIED', 'UNSPECIFIED', '' ) ;
#44 = PERSON_AND_ORGANIZATION ( #240, #43 ) ;
#45 = PERSON_AND_ORGANIZATION ( #240, #43 ) ;
#46 = APPROVAL_PERSON_ORGANIZATION ( #45, #224, #172 ) ;
#47 = EDGE_LOOP ( 'NONE', ( #90, #7, #6, #101 ) ) ;
#48 = COORDINATED_UNIVERSAL_TIME_OFFSET ( 6, 0, .BEHIND. ) ;
#49 = LOCAL_TIME ( 18, 19, 24.00000000000000000, #48 ) ;
#50 = CALENDAR_DATE ( 2012, 11, 6 ) ;
#51 = DATE_AND_TIME ( #50, #49 ) ;
#52 = APPROVAL_DATE_TIME ( #51, #224 ) ;
#53 = DATE_AND_TIME ( #57, #56 ) ;
#54 = APPROVAL_DATE_TIME ( #53, #236 ) ;
#55 = COORDINATED_UNIVERSAL_TIME_OFFSET ( 6, 0, .BEHIND. ) ;
#56 = LOCAL_TIME ( 18, 19, 24.00000000000000000, #55 ) ;
#57 = CALENDAR_DATE ( 2012, 11, 6 ) ;
#58 = DATE_AND_TIME ( #72, #71 ) ;
#59 = PERSON_AND_ORGANIZATION ( #240, #43 ) ;
#60 = APPROVAL_PERSON_ORGANIZATION ( #59, #236, #191 ) ;
#61 = PERSON_AND_ORGANIZATION ( #240, #43 ) ;
#62 = PERSON_AND_ORGANIZATION ( #240, #43 ) ;
#63 = PERSON_AND_ORGANIZATION ( #240, #43 ) ;
#64 = CALENDAR_DATE ( 2012, 11, 6 ) ;
#65 = DATE_AND_TIME ( #64, #69 ) ;
#66 = APPROVAL_DATE_TIME ( #65, #229 ) ;
#67 = APPROVAL_PERSON_ORGANIZATION ( #73, #229, #185 ) ;
#68 = COORDINATED_UNIVERSAL_TIME_OFFSET ( 6, 0, .BEHIND. ) ;
#69 = LOCAL_TIME ( 18, 19, 24.00000000000000000, #68 ) ;
#70 = COORDINATED_UNIVERSAL_TIME_OFFSET ( 6, 0, .BEHIND. ) ;
#71 = LOCAL_TIME ( 18, 19, 24.00000000000000000, #70 ) ;
#72 = CALENDAR_DATE ( 2012, 11, 6 ) ;
#73 = PERSON_AND_ORGANIZATION ( #240, #43 ) ;
#74 = DATE_AND_TIME ( #75, #76 ) ;
#75 = CALENDAR_DATE ( 2012, 11, 6 ) ;
#76 = LOCAL_TIME ( 18, 19, 24.00000000000000000, #77 ) ;
#77 = COORDINATED_UNIVERSAL_TIME_OFFSET ( 6, 0, .BEHIND. ) ;
#78 = PERSON_AND_ORGANIZATION ( #240, #43 ) ;
#79 = ORIENTED_EDGE ( 'NONE', *, *, #203, .F. ) ;
#80 = EDGE_LOOP ( 'NONE', ( #83, #94, #100, #93 ) ) ;
#81 = ORIENTED_EDGE ( 'NONE', *, *, #201, .F. ) ;
#82 = ORIENTED_EDGE ( 'NONE', *, *, #197, .T. ) ;
#83 = ORIENTED_EDGE ( 'NONE', *, *, #200, .F. ) ;
#84 = ORIENTED_EDGE ( 'NONE', *, *, #204, .F. ) ;
#85 = EDGE_LOOP ( 'NONE', ( #9, #92 ) ) ;
#86 = EDGE_LOOP ( 'NONE', ( #79, #5, #91, #84 ) ) ;
#87 = EDGE_LOOP ( 'NONE', ( #82, #88 ) ) ;
#88 = ORIENTED_EDGE ( 'NONE', *, *, #208, .T. ) ;
#89 = ORIENTED_EDGE ( 'NONE', *, *, #203, .T. ) ;
#90 = ORIENTED_EDGE ( 'NONE', *, *, #202, .F. ) ;
#91 = ORIENTED_EDGE ( 'NONE', *, *, #198, .T. ) ;
#92 = ORIENTED_EDGE ( 'NONE', *, *, #198, .F. ) ;
#93 = ORIENTED_EDGE ( 'NONE', *, *, #208, .F. ) ;
#94 = ORIENTED_EDGE ( 'NONE', *, *, #206, .T. ) ;
#95 = EDGE_LOOP ( 'NONE', ( #81, #15 ) ) ;
#96 = CLOSED_SHELL ( 'NONE', ( #247, #243, #242, #244, #245, #246 ) ) ;
#97 = ORIENTED_EDGE ( 'NONE', *, *, #205, .T. ) ;
#98 = EDGE_LOOP ( 'NONE', ( #97, #89 ) ) ;
#99 = ORIENTED_EDGE ( 'NONE', *, *, #200, .T. ) ;
#100 = ORIENTED_EDGE ( 'NONE', *, *, #199, .T. ) ;
#101 = ORIENTED_EDGE ( 'NONE', *, *, #207, .T. ) ;
#102 = CARTESIAN_POINT ( 'NONE',  ( 0.0000000000000000000, 30.00000000000000000, 0.0000000000000000000 ) ) ;
#103 = DIRECTION ( 'NONE',  ( 0.0000000000000000000, -0.0000000000000000000, 1.000000000000000000 ) ) ;
#104 = DIRECTION ( 'NONE',  ( 0.0000000000000000000, 1.000000000000000000, 0.0000000000000000000 ) ) ;
#105 = DIRECTION ( 'NONE',  ( -0.0000000000000000000, -1.000000000000000000, -0.0000000000000000000 ) ) ;
#106 = PLANE ( 'NONE',  #216 ) ;
#107 = DIRECTION ( 'NONE',  ( 0.0000000000000000000, 0.0000000000000000000, 1.000000000000000000 ) ) ;
#108 = DIRECTION ( 'NONE',  ( 0.0000000000000000000, 1.000000000000000000, 0.0000000000000000000 ) ) ;
#109 = CARTESIAN_POINT ( 'NONE',  ( 0.0000000000000000000, 30.00000000000000000, 0.0000000000000000000 ) ) ;
#110 = CARTESIAN_POINT ( 'NONE',  ( 0.0000000000000000000, 30.00000000000000000, 0.0000000000000000000 ) ) ;
#111 = DIRECTION ( 'NONE',  ( 0.0000000000000000000, 0.0000000000000000000, 1.000000000000000000 ) ) ;
#112 = DIRECTION ( 'NONE',  ( 0.0000000000000000000, 1.000000000000000000, 0.0000000000000000000 ) ) ;
#113 = DIRECTION ( 'NONE',  ( 0.0000000000000000000, 0.0000000000000000000, -1.000000000000000000 ) ) ;
#114 = DIRECTION ( 'NONE',  ( 0.0000000000000000000, 0.0000000000000000000, 1.000000000000000000 ) ) ;
#115 = DIRECTION ( 'NONE',  ( 0.0000000000000000000, 1.000000000000000000, 0.0000000000000000000 ) ) ;
#116 = CARTESIAN_POINT ( 'NONE',  ( 0.0000000000000000000, 0.0000000000000000000, 0.0000000000000000000 ) ) ;
#117 = DIRECTION ( 'NONE',  ( 0.0000000000000000000, 0.0000000000000000000, 1.000000000000000000 ) ) ;
#118 = DIRECTION ( 'NONE',  ( 0.0000000000000000000, 1.000000000000000000, 0.0000000000000000000 ) ) ;
#119 = CARTESIAN_POINT ( 'NONE',  ( 0.0000000000000000000, 0.0000000000000000000, 0.0000000000000000000 ) ) ;
#120 = CARTESIAN_POINT ( 'NONE',  ( 0.0000000000000000000, 30.00000000000000000, 0.0000000000000000000 ) ) ;
#121 = DIRECTION ( 'NONE',  ( -0.0000000000000000000, -1.000000000000000000, -0.0000000000000000000 ) ) ;
#122 = CARTESIAN_POINT ( 'NONE',  ( 0.0000000000000000000, 30.00000000000000000, 0.0000000000000000000 ) ) ;
#123 = DIRECTION ( 'NONE',  ( 0.0000000000000000000, 0.0000000000000000000, 1.000000000000000000 ) ) ;
#124 = DIRECTION ( 'NONE',  ( 0.0000000000000000000, 1.000000000000000000, 0.0000000000000000000 ) ) ;
#125 = DIRECTION ( 'NONE',  ( -0.0000000000000000000, -1.000000000000000000, -0.0000000000000000000 ) ) ;
#126 = CARTESIAN_POINT ( 'NONE',  ( 3.110602869834276900E-015, 30.00000000000000000, 25.39999999999999900 ) ) ;
#127 = DIRECTION ( 'NONE',  ( 0.0000000000000000000, 0.0000000000000000000, 1.000000000000000000 ) ) ;
#128 = DIRECTION ( 'NONE',  ( 0.0000000000000000000, 1.000000000000000000, 0.0000000000000000000 ) ) ;
#129 = CARTESIAN_POINT ( 'NONE',  ( 0.0000000000000000000, 30.00000000000000000, -25.39999999999999900 ) ) ;
#130 = CARTESIAN_POINT ( 'NONE',  ( 0.0000000000000000000, 30.00000000000000000, 0.0000000000000000000 ) ) ;
#131 = DIRECTION ( 'NONE',  ( -0.0000000000000000000, -1.000000000000000000, -0.0000000000000000000 ) ) ;
#132 = CARTESIAN_POINT ( 'NONE',  ( 0.0000000000000000000, 30.00000000000000000, 0.0000000000000000000 ) ) ;
#133 = DIRECTION ( 'NONE',  ( -0.0000000000000000000, -1.000000000000000000, -0.0000000000000000000 ) ) ;
#134 = CARTESIAN_POINT ( 'NONE',  ( 7.347880794884117800E-016, 30.00000000000000000, 5.999999999999998200 ) ) ;
#135 = DIRECTION ( 'NONE',  ( 0.0000000000000000000, 0.0000000000000000000, 1.000000000000000000 ) ) ;
#136 = CARTESIAN_POINT ( 'NONE',  ( 0.0000000000000000000, 30.00000000000000000, 0.0000000000000000000 ) ) ;
#137 = DIRECTION ( 'NONE',  ( 0.0000000000000000000, 1.000000000000000000, 0.0000000000000000000 ) ) ;
#138 = CARTESIAN_POINT ( 'NONE',  ( 0.0000000000000000000, 0.0000000000000000000, 0.0000000000000000000 ) ) ;
#139 = DIRECTION ( 'NONE',  ( 0.0000000000000000000, 0.0000000000000000000, 1.000000000000000000 ) ) ;
#140 = DIRECTION ( 'NONE',  ( 0.0000000000000000000, 1.000000000000000000, 0.0000000000000000000 ) ) ;
#141 = CARTESIAN_POINT ( 'NONE',  ( 0.0000000000000000000, 0.0000000000000000000, 0.0000000000000000000 ) ) ;
#142 = CARTESIAN_POINT ( 'NONE',  ( 0.0000000000000000000, 30.00000000000000000, -5.999999999999998200 ) ) ;
#143 = CARTESIAN_POINT ( 'NONE',  ( 0.0000000000000000000, 30.00000000000000000, -5.999999999999998200 ) ) ;
#144 = VERTEX_POINT ( 'NONE', #154 ) ;
#145 = VERTEX_POINT ( 'NONE', #150 ) ;
#146 = VERTEX_POINT ( 'NONE', #157 ) ;
#147 = VERTEX_POINT ( 'NONE', #151 ) ;
#148 = VERTEX_POINT ( 'NONE', #153 ) ;
#149 = VERTEX_POINT ( 'NONE', #158 ) ;
#150 = CARTESIAN_POINT ( 'NONE',  ( 0.0000000000000000000, 30.00000000000000000, -25.39999999999999900 ) ) ;
#151 = CARTESIAN_POINT ( 'NONE',  ( 0.0000000000000000000, 0.0000000000000000000, -25.39999999999999900 ) ) ;
#152 = VERTEX_POINT ( 'NONE', #156 ) ;
#153 = CARTESIAN_POINT ( 'NONE',  ( 3.110602869834276900E-015, 0.0000000000000000000, 25.39999999999999900 ) ) ;
#154 = CARTESIAN_POINT ( 'NONE',  ( 7.347880794884117800E-016, 30.00000000000000000, 5.999999999999998200 ) ) ;
#155 = VERTEX_POINT ( 'NONE', #143 ) ;
#156 = CARTESIAN_POINT ( 'NONE',  ( 3.110602869834276900E-015, 30.00000000000000000, 25.39999999999999900 ) ) ;
#157 = CARTESIAN_POINT ( 'NONE',  ( 7.347880794884117800E-016, 0.0000000000000000000, 5.999999999999998200 ) ) ;
#158 = CARTESIAN_POINT ( 'NONE',  ( 0.0000000000000000000, 0.0000000000000000000, -5.999999999999998200 ) ) ;
#159 = CARTESIAN_POINT ( 'NONE',  ( 0.0000000000000000000, 30.00000000000000000, 0.0000000000000000000 ) ) ;
#160 = DIRECTION ( 'NONE',  ( -0.0000000000000000000, -1.000000000000000000, -0.0000000000000000000 ) ) ;
#161 = DIRECTION ( 'NONE',  ( -0.0000000000000000000, -1.000000000000000000, -0.0000000000000000000 ) ) ;
#162 = CARTESIAN_POINT ( 'NONE',  ( 0.0000000000000000000, 0.0000000000000000000, 0.0000000000000000000 ) ) ;
#163 = PLANE ( 'NONE',  #218 ) ;
#164 = DIRECTION ( 'NONE',  ( 0.0000000000000000000, 0.0000000000000000000, -1.000000000000000000 ) ) ;
#165 =( NAMED_UNIT ( * ) PLANE_ANGLE_UNIT ( ) SI_UNIT ( $, .RADIAN. ) );
#166 = DIRECTION ( 'NONE',  ( -0.0000000000000000000, -1.000000000000000000, -0.0000000000000000000 ) ) ;
#167 = DIRECTION ( 'NONE',  ( 0.0000000000000000000, 0.0000000000000000000, -1.000000000000000000 ) ) ;
#168 =( NAMED_UNIT ( * ) SI_UNIT ( $, .STERADIAN. ) SOLID_ANGLE_UNIT ( ) );
#169 = PERSON_AND_ORGANIZATION_ROLE ( 'creator' ) ;
#170 =( LENGTH_UNIT ( ) NAMED_UNIT ( * ) SI_UNIT ( .MILLI., .METRE. ) );
#171 = APPLICATION_CONTEXT ( 'configuration controlled 3d designs of mechanical parts and assemblies' ) ;
#172 = APPROVAL_ROLE ( '' ) ;
#173 = CARTESIAN_POINT ( 'NONE',  ( 0.0000000000000000000, 0.0000000000000000000, 0.0000000000000000000 ) ) ;
#174 = DATE_TIME_ROLE ( 'creation_date' ) ;
#175 = PERSON_AND_ORGANIZATION_ROLE ( 'classification_officer' ) ;
#176 = PERSON_AND_ORGANIZATION_ROLE ( 'design_supplier' ) ;
#177 = DIRECTION ( 'NONE',  ( 0.0000000000000000000, 1.000000000000000000, 0.0000000000000000000 ) ) ;
#178 = DIRECTION ( 'NONE',  ( 0.0000000000000000000, 0.0000000000000000000, -1.000000000000000000 ) ) ;
#179 = SECURITY_CLASSIFICATION_LEVEL ( 'unclassified' ) ;
#180 = APPLICATION_PROTOCOL_DEFINITION ( 'international standard', 'config_control_design', 1994, #186 ) ;
#181 = DIRECTION ( 'NONE',  ( 0.0000000000000000000, -0.0000000000000000000, 1.000000000000000000 ) ) ;
#182 = APPLICATION_PROTOCOL_DEFINITION ( 'international standard', 'config_control_design', 1994, #171 ) ;
#183 = PERSON_AND_ORGANIZATION_ROLE ( 'design_owner' ) ;
#184 = DIRECTION ( 'NONE',  ( 0.0000000000000000000, 0.0000000000000000000, 1.000000000000000000 ) ) ;
#185 = APPROVAL_ROLE ( '' ) ;
#186 = APPLICATION_CONTEXT ( 'configuration controlled 3d designs of mechanical parts and assemblies' ) ;
#187 = PERSON_AND_ORGANIZATION_ROLE ( 'creator' ) ;
#188 = APPROVAL_STATUS ( 'not_yet_approved' ) ;
#189 = DATE_TIME_ROLE ( 'classification_date' ) ;
#190 = APPROVAL_STATUS ( 'not_yet_approved' ) ;
#191 = APPROVAL_ROLE ( '' ) ;
#192 = APPROVAL_STATUS ( 'not_yet_approved' ) ;
#193 = DIRECTION ( 'NONE',  ( 1.000000000000000000, 0.0000000000000000000, 0.0000000000000000000 ) ) ;
#194 = MECHANICAL_CONTEXT ( 'NONE', #171, 'mechanical' ) ;
#195 = AXIS2_PLACEMENT_3D ( 'NONE', #138, #137, #135 ) ;
#196 = AXIS2_PLACEMENT_3D ( 'NONE', #119, #112, #111 ) ;
#197 = EDGE_CURVE ( 'NONE', #149, #146, #16, .T. ) ;
#198 = EDGE_CURVE ( 'NONE', #148, #147, #18, .T. ) ;
#199 = EDGE_CURVE ( 'NONE', #155, #149, #17, .T. ) ;
#200 = EDGE_CURVE ( 'NONE', #144, #146, #12, .T. ) ;
#201 = EDGE_CURVE ( 'NONE', #155, #144, #22, .T. ) ;
#202 = EDGE_CURVE ( 'NONE', #152, #148, #20, .T. ) ;
#203 = EDGE_CURVE ( 'NONE', #152, #145, #24, .T. ) ;
#204 = EDGE_CURVE ( 'NONE', #145, #147, #23, .T. ) ;
#205 = EDGE_CURVE ( 'NONE', #145, #152, #26, .T. ) ;
#206 = EDGE_CURVE ( 'NONE', #144, #155, #28, .T. ) ;
#207 = EDGE_CURVE ( 'NONE', #147, #148, #30, .T. ) ;
#208 = EDGE_CURVE ( 'NONE', #146, #149, #32, .T. ) ;
#209 = AXIS2_PLACEMENT_3D ( 'NONE', #132, #124, #123 ) ;
#210 = AXIS2_PLACEMENT_3D ( 'NONE', #130, #128, #127 ) ;
#211 = AXIS2_PLACEMENT_3D ( 'NONE', #122, #115, #114 ) ;
#212 = AXIS2_PLACEMENT_3D ( 'NONE', #120, #118, #117 ) ;
#213 = AXIS2_PLACEMENT_3D ( 'NONE', #141, #140, #139 ) ;
#214 = AXIS2_PLACEMENT_3D ( 'NONE', #116, #108, #107 ) ;
#215 = AXIS2_PLACEMENT_3D ( 'NONE', #173, #184, #193 ) ;
#216 = AXIS2_PLACEMENT_3D ( 'NONE', #109, #104, #103 ) ;
#217 = AXIS2_PLACEMENT_3D ( 'NONE', #110, #105, #113 ) ;
#218 = AXIS2_PLACEMENT_3D ( 'NONE', #162, #177, #181 ) ;
#219 = AXIS2_PLACEMENT_3D ( 'NONE', #102, #161, #164 ) ;
#220 = AXIS2_PLACEMENT_3D ( 'NONE', #136, #160, #167 ) ;
#221 = AXIS2_PLACEMENT_3D ( 'NONE', #159, #166, #178 ) ;
#222 = CC_DESIGN_PERSON_AND_ORGANIZATION_ASSIGNMENT ( #44, #183, ( #241 ) ) ;
#223 = PRODUCT_DEFINITION ( 'UNKNOWN', '', #228, #248 ) ;
#224 = APPROVAL ( #192, 'UNSPECIFIED' ) ;
#225 = CC_DESIGN_APPROVAL ( #224, ( #223 ) ) ;
#226 = CC_DESIGN_PERSON_AND_ORGANIZATION_ASSIGNMENT ( #78, #187, ( #223 ) ) ;
#227 = CC_DESIGN_DATE_AND_TIME_ASSIGNMENT ( #74, #174, ( #223 ) ) ;
#228 = PRODUCT_DEFINITION_FORMATION_WITH_SPECIFIED_SOURCE ( 'ANY', '', #241, .NOT_KNOWN. ) ;
#229 = APPROVAL ( #188, 'UNSPECIFIED' ) ;
#230 = CC_DESIGN_APPROVAL ( #229, ( #228 ) ) ;
#231 = CC_DESIGN_PERSON_AND_ORGANIZATION_ASSIGNMENT ( #61, #169, ( #228 ) ) ;
#232 = CC_DESIGN_PERSON_AND_ORGANIZATION_ASSIGNMENT ( #62, #176, ( #228 ) ) ;
#233 = SECURITY_CLASSIFICATION ( '', '', #179 ) ;
#234 = CC_DESIGN_PERSON_AND_ORGANIZATION_ASSIGNMENT ( #63, #175, ( #233 ) ) ;
#235 = CC_DESIGN_DATE_AND_TIME_ASSIGNMENT ( #58, #189, ( #233 ) ) ;
#236 = APPROVAL ( #190, 'UNSPECIFIED' ) ;
#237 = CC_DESIGN_APPROVAL ( #236, ( #233 ) ) ;
#238 = CC_DESIGN_SECURITY_CLASSIFICATION ( #233, ( #228 ) ) ;
#239 = PRODUCT_RELATED_PRODUCT_CATEGORY ( 'detail', '', ( #241 ) ) ;
#240 = PERSON ( 'UNSPECIFIED', 'UNSPECIFIED', 'UNSPECIFIED', ('UNSPECIFIED'), ('UNSPECIFIED'), ('UNSPECIFIED') ) ;
#241 = PRODUCT ( 'ShortSpacer', 'ShortSpacer', '', ( #194 ) ) ;
#242 = ADVANCED_FACE ( 'NONE', ( #25, #27 ), #106, .T. ) ;
#243 = ADVANCED_FACE ( 'NONE', ( #33 ), #35, .T. ) ;
#244 = ADVANCED_FACE ( 'NONE', ( #34, #36 ), #163, .F. ) ;
#245 = ADVANCED_FACE ( 'NONE', ( #29 ), #38, .T. ) ;
#246 = ADVANCED_FACE ( 'NONE', ( #37 ), #39, .F. ) ;
#247 = ADVANCED_FACE ( 'NONE', ( #31 ), #40, .F. ) ;
#248 = DESIGN_CONTEXT ( 'detailed design', #186, 'design' ) ;
#249 = PRODUCT_DEFINITION_SHAPE ( 'NONE', 'NONE',  #223 ) ;
ENDSEC;
END-ISO-10303-21;
