 0
SECTION
 2
ENTITIES
  0
POLYLINE
 8
Group#1
 66
     1
70
    8
 10
0.0
 20
 0.0
 30
0.0
  0
VERTEX
  8
MY3DLAYER
10
0.96978744809792
20
1.95599118491604
30
0.0
 70
     32
  0
VERTEX
  8
MY3DLAYER
10
1.63645411476459
20
1.95599118491604
30
0.0
 70
     32
  0
VERTEX
  8
MY3DLAYER
10
1.63645411476459
20
1.95599118491604
30
0.0416666666666667
 70
     32
  0
VERTEX
  8
MY3DLAYER
10
0.96978744809792
20
1.95599118491604
30
0.0416666666666667
 70
     32
  0
VERTEX
  8
MY3DLAYER
10
0.96978744809792
20
1.95599118491604
30
0.0
 70
     32
  0
SEQEND
  0
POLYLINE
 8
Group#1
 66
     1
70
    8
 10
0.0
 20
 0.0
 30
0.0
  0
VERTEX
  8
MY3DLAYER
10
1.15321676197612
20
2.0788825242457
30
0.0
 70
     32
  0
VERTEX
  8
MY3DLAYER
10
1.14131570020277
20
2.07603564000896
30
0.0
 70
     32
  0
VERTEX
  8
MY3DLAYER
10
1.14131570020277
20
2.07603564000896
30
0.0416666666666667
 70
     32
  0
VERTEX
  8
MY3DLAYER
10
1.15321676197612
20
2.0788825242457
30
0.0416666666666667
 70
     32
  0
VERTEX
  8
MY3DLAYER
10
1.15321676197612
20
2.0788825242457
30
0.0
 70
     32
  0
SEQEND
  0
POLYLINE
 8
Group#1
 66
     1
70
    8
 10
0.0
 20
 0.0
 30
0.0
  0
VERTEX
  8
MY3DLAYER
10
1.51666244809792
20
2.45599118491604
30
0.0
 70
     32
  0
VERTEX
  8
MY3DLAYER
10
1.51506522120522
20
2.44385904217686
30
0.0
 70
     32
  0
VERTEX
  8
MY3DLAYER
10
1.51506522120522
20
2.44385904217686
30
0.0416666666666667
 70
     32
  0
VERTEX
  8
MY3DLAYER
10
1.51666244809792
20
2.45599118491604
30
0.0416666666666667
 70
     32
  0
VERTEX
  8
MY3DLAYER
10
1.51666244809792
20
2.45599118491604
30
0.0
 70
     32
  0
SEQEND
  0
POLYLINE
 8
Group#1
 66
     1
70
    8
 10
0.0
 20
 0.0
 30
0.0
  0
VERTEX
  8
MY3DLAYER
10
1.51506522120522
20
2.46812332765522
30
0.0
 70
     32
  0
VERTEX
  8
MY3DLAYER
10
1.51666244809792
20
2.45599118491604
30
0.0
 70
     32
  0
VERTEX
  8
MY3DLAYER
10
1.51666244809792
20
2.45599118491604
30
0.0416666666666667
 70
     32
  0
VERTEX
  8
MY3DLAYER
10
1.51506522120522
20
2.46812332765522
30
0.0416666666666667
 70
     32
  0
VERTEX
  8
MY3DLAYER
10
1.51506522120522
20
2.46812332765522
30
0.0
 70
     32
  0
SEQEND
  0
POLYLINE
 8
Group#1
 66
     1
70
    8
 10
0.0
 20
 0.0
 30
0.0
  0
VERTEX
  8
MY3DLAYER
10
1.51038238890031
20
2.47942868491604
30
0.0
 70
     32
  0
VERTEX
  8
MY3DLAYER
10
1.51506522120522
20
2.46812332765522
30
0.0
 70
     32
  0
VERTEX
  8
MY3DLAYER
10
1.51506522120522
20
2.46812332765522
30
0.0416666666666667
 70
     32
  0
VERTEX
  8
MY3DLAYER
10
1.51038238890031
20
2.47942868491604
30
0.0416666666666667
 70
     32
  0
VERTEX
  8
MY3DLAYER
10
1.51038238890031
20
2.47942868491604
30
0.0
 70
     32
  0
SEQEND
  0
POLYLINE
 8
Group#1
 66
     1
70
    8
 10
0.0
 20
 0.0
 30
0.0
  0
VERTEX
  8
MY3DLAYER
10
1.50293307846604
20
2.48913681528416
30
0.0
 70
     32
  0
VERTEX
  8
MY3DLAYER
10
1.51038238890031
20
2.47942868491604
30
0.0
 70
     32
  0
VERTEX
  8
MY3DLAYER
10
1.51038238890031
20
2.47942868491604
30
0.0416666666666667
 70
     32
  0
VERTEX
  8
MY3DLAYER
10
1.50293307846604
20
2.48913681528416
30
0.0416666666666667
 70
     32
  0
VERTEX
  8
MY3DLAYER
10
1.50293307846604
20
2.48913681528416
30
0.0
 70
     32
  0
SEQEND
  0
POLYLINE
 8
Group#1
 66
     1
70
    8
 10
0.0
 20
 0.0
 30
0.0
  0
VERTEX
  8
MY3DLAYER
10
1.62509605686094
20
3.02143086661688
30
0.0
 70
     32
  0
VERTEX
  8
MY3DLAYER
10
1.63645411476459
20
2.93515785158271
30
0.0
 70
     32
  0
VERTEX
  8
MY3DLAYER
10
1.63645411476459
20
1.95599118491604
30
0.0
 70
     32
  0
VERTEX
  8
MY3DLAYER
10
0.96978744809792
20
1.95599118491604
30
0.0
 70
     32
  0
VERTEX
  8
MY3DLAYER
10
0.96978744809792
20
2.93515785158271
30
0.0
 70
     32
  0
VERTEX
  8
MY3DLAYER
10
0.981145506001563
20
3.02143086661688
30
0.0
 70
     32
  0
VERTEX
  8
MY3DLAYER
10
1.01444564683644
20
3.10182451824937
30
0.0
 70
     32
  0
VERTEX
  8
MY3DLAYER
10
1.06741852103574
20
3.17086011197822
30
0.0
 70
     32
  0
VERTEX
  8
MY3DLAYER
10
1.13645411476459
20
3.22383298617752
30
0.0
 70
     32
  0
VERTEX
  8
MY3DLAYER
10
1.21684776639708
20
3.25713312701239
30
0.0
 70
     32
  0
VERTEX
  8
MY3DLAYER
10
1.30312078143125
20
3.26849118491604
30
0.0
 70
     32
  0
VERTEX
  8
MY3DLAYER
10
1.38939379646543
20
3.25713312701239
30
0.0
 70
     32
  0
VERTEX
  8
MY3DLAYER
10
1.46978744809792
20
3.22383298617752
30
0.0
 70
     32
  0
VERTEX
  8
MY3DLAYER
10
1.53882304182677
20
3.17086011197822
30
0.0
 70
     32
  0
VERTEX
  8
MY3DLAYER
10
1.59179591602607
20
3.10182451824937
30
0.0
 70
     32
  0
VERTEX
  8
MY3DLAYER
10
1.62509605686094
20
3.02143086661688
30
0.0
 70
     32
  0
SEQEND
  0
POLYLINE
 8
Group#1
 66
     1
70
    8
 10
0.0
 20
 0.0
 30
0.0
  0
VERTEX
  8
MY3DLAYER
10
1.42780227561774
20
2.94707350542953
30
0.0
 70
     32
  0
VERTEX
  8
MY3DLAYER
10
1.42586192201552
20
2.97964731325676
30
0.0
 70
     32
  0
VERTEX
  8
MY3DLAYER
10
1.41555696252181
20
3.01060899503116
30
0.0
 70
     32
  0
VERTEX
  8
MY3DLAYER
10
1.39758966309635
20
3.03784856330642
30
0.0
 70
     32
  0
VERTEX
  8
MY3DLAYER
10
1.37318446550262
20
3.05950968652009
30
0.0
 70
     32
  0
VERTEX
  8
MY3DLAYER
10
1.34400454362514
20
3.07411619492185
30
0.0
 70
     32
  0
VERTEX
  8
MY3DLAYER
10
1.31203846091776
20
3.08067267910253
30
0.0
 70
     32
  0
VERTEX
  8
MY3DLAYER
10
1.27946465309054
20
3.07873232550031
30
0.0
 70
     32
  0
VERTEX
  8
MY3DLAYER
10
1.24850297131613
20
3.0684273660066
30
0.0
 70
     32
  0
VERTEX
  8
MY3DLAYER
10
1.22126340304087
20
3.05046006658113
30
0.0
 70
     32
  0
VERTEX
  8
MY3DLAYER
10
1.1996022798272
20
3.02605486898741
30
0.0
 70
     32
  0
VERTEX
  8
MY3DLAYER
10
1.18499577142544
20
2.99687494710993
30
0.0
 70
     32
  0
VERTEX
  8
MY3DLAYER
10
1.17843928724476
20
2.96490886440255
30
0.0
 70
     32
  0
VERTEX
  8
MY3DLAYER
10
1.18037964084698
20
2.93233505657532
30
0.0
 70
     32
  0
VERTEX
  8
MY3DLAYER
10
1.1906846003407
20
2.90137337480092
30
0.0
 70
     32
  0
VERTEX
  8
MY3DLAYER
10
1.20865189976616
20
2.87413380652566
30
0.0
 70
     32
  0
VERTEX
  8
MY3DLAYER
10
1.23305709735988
20
2.85247268331199
30
0.0
 70
     32
  0
VERTEX
  8
MY3DLAYER
10
1.26223701923736
20
2.83786617491022
30
0.0
 70
     32
  0
VERTEX
  8
MY3DLAYER
10
1.29420310194474
20
2.83130969072955
30
0.0
 70
     32
  0
VERTEX
  8
MY3DLAYER
10
1.32677690977197
20
2.83325004433177
30
0.0
 70
     32
  0
VERTEX
  8
MY3DLAYER
10
1.35773859154637
20
2.84355500382548
30
0.0
 70
     32
  0
VERTEX
  8
MY3DLAYER
10
1.38497815982163
20
2.86152230325094
30
0.0
 70
     32
  0
VERTEX
  8
MY3DLAYER
10
1.4066392830353
20
2.88592750084467
30
0.0
 70
     32
  0
VERTEX
  8
MY3DLAYER
10
1.42124579143707
20
2.91510742272215
30
0.0
 70
     32
  0
VERTEX
  8
MY3DLAYER
10
1.42780227561774
20
2.94707350542953
30
0.0
 70
     32
  0
SEQEND
  0
POLYLINE
 8
Group#1
 66
     1
70
    8
 10
0.0
 20
 0.0
 30
0.0
  0
VERTEX
  8
MY3DLAYER
10
1.18332911476459
20
2.78932451824937
30
0.0
 70
     32
  0
VERTEX
  8
MY3DLAYER
10
1.18173188787189
20
2.80145666098855
30
0.0
 70
     32
  0
VERTEX
  8
MY3DLAYER
10
1.17704905556698
20
2.81276201824937
30
0.0
 70
     32
  0
VERTEX
  8
MY3DLAYER
10
1.16959974513271
20
2.82247014861749
30
0.0
 70
     32
  0
VERTEX
  8
MY3DLAYER
10
1.15989161476459
20
2.82991945905177
30
0.0
 70
     32
  0
VERTEX
  8
MY3DLAYER
10
1.14858625750377
20
2.83460229135667
30
0.0
 70
     32
  0
VERTEX
  8
MY3DLAYER
10
1.13645411476459
20
2.83619951824937
30
0.0
 70
     32
  0
VERTEX
  8
MY3DLAYER
10
1.12432197202541
20
2.83460229135667
30
0.0
 70
     32
  0
VERTEX
  8
MY3DLAYER
10
1.11301661476459
20
2.82991945905177
30
0.0
 70
     32
  0
VERTEX
  8
MY3DLAYER
10
1.10330848439647
20
2.82247014861749
30
0.0
 70
     32
  0
VERTEX
  8
MY3DLAYER
10
1.09585917396219
20
2.81276201824937
30
0.0
 70
     32
  0
VERTEX
  8
MY3DLAYER
10
1.09117634165729
20
2.80145666098855
30
0.0
 70
     32
  0
VERTEX
  8
MY3DLAYER
10
1.08957911476459
20
2.78932451824937
30
0.0
 70
     32
  0
VERTEX
  8
MY3DLAYER
10
1.09117634165729
20
2.77719237551019
30
0.0
 70
     32
  0
VERTEX
  8
MY3DLAYER
10
1.09585917396219
20
2.76588701824937
30
0.0
 70
     32
  0
VERTEX
  8
MY3DLAYER
10
1.10330848439647
20
2.75617888788125
30
0.0
 70
     32
  0
VERTEX
  8
MY3DLAYER
10
1.11301661476459
20
2.74872957744698
30
0.0
 70
     32
  0
VERTEX
  8
MY3DLAYER
10
1.12432197202541
20
2.74404674514207
30
0.0
 70
     32
  0
VERTEX
  8
MY3DLAYER
10
1.13645411476459
20
2.74244951824937
30
0.0
 70
     32
  0
VERTEX
  8
MY3DLAYER
10
1.14858625750377
20
2.74404674514207
30
0.0
 70
     32
  0
VERTEX
  8
MY3DLAYER
10
1.15989161476459
20
2.74872957744698
30
0.0
 70
     32
  0
VERTEX
  8
MY3DLAYER
10
1.16959974513271
20
2.75617888788125
30
0.0
 70
     32
  0
VERTEX
  8
MY3DLAYER
10
1.17704905556698
20
2.76588701824937
30
0.0
 70
     32
  0
VERTEX
  8
MY3DLAYER
10
1.18173188787189
20
2.77719237551019
30
0.0
 70
     32
  0
VERTEX
  8
MY3DLAYER
10
1.18332911476459
20
2.78932451824937
30
0.0
 70
     32
  0
SEQEND
  0
POLYLINE
 8
Group#1
 66
     1
70
    8
 10
0.0
 20
 0.0
 30
0.0
  0
VERTEX
  8
MY3DLAYER
10
1.47510191511604
20
2.74275175726923
30
0.0
 70
     32
  0
VERTEX
  8
MY3DLAYER
10
1.48697474656835
20
2.74571417089593
30
0.0
 70
     32
  0
VERTEX
  8
MY3DLAYER
10
1.49767629203326
20
2.75164855762525
30
0.0
 70
     32
  0
VERTEX
  8
MY3DLAYER
10
1.50647725887246
20
2.76015049880864
30
0.0
 70
     32
  0
VERTEX
  8
MY3DLAYER
10
1.51277787574016
20
2.77064060120457
30
0.0
 70
     32
  0
VERTEX
  8
MY3DLAYER
10
1.51614876600908
20
2.78240398167047
30
0.0
 70
     32
  0
VERTEX
  8
MY3DLAYER
10
1.51636020907806
20
2.79463898526749
30
0.0
 70
     32
  0
VERTEX
  8
MY3DLAYER
10
1.51339779545137
20
2.80651181671981
30
0.0
 70
     32
  0
VERTEX
  8
MY3DLAYER
10
1.50746340872204
20
2.81721336218471
30
0.0
 70
     32
  0
VERTEX
  8
MY3DLAYER
10
1.49896146753865
20
2.82601432902392
30
0.0
 70
     32
  0
VERTEX
  8
MY3DLAYER
10
1.48847136514272
20
2.83231494589162
30
0.0
 70
     32
  0
VERTEX
  8
MY3DLAYER
10
1.47670798467682
20
2.83568583616054
30
0.0
 70
     32
  0
VERTEX
  8
MY3DLAYER
10
1.4644729810798
20
2.83589727922951
30
0.0
 70
     32
  0
VERTEX
  8
MY3DLAYER
10
1.45260014962749
20
2.83293486560282
30
0.0
 70
     32
  0
VERTEX
  8
MY3DLAYER
10
1.44189860416258
20
2.82700047887349
30
0.0
 70
     32
  0
VERTEX
  8
MY3DLAYER
10
1.43309763732337
20
2.8184985376901
30
0.0
 70
     32
  0
VERTEX
  8
MY3DLAYER
10
1.42679702045568
20
2.80800843529417
30
0.0
 70
     32
  0
VERTEX
  8
MY3DLAYER
10
1.42342613018675
20
2.79624505482827
30
0.0
 70
     32
  0
VERTEX
  8
MY3DLAYER
10
1.42321468711778
20
2.78401005123125
30
0.0
 70
     32
  0
VERTEX
  8
MY3DLAYER
10
1.42617710074447
20
2.77213721977894
30
0.0
 70
     32
  0
VERTEX
  8
MY3DLAYER
10
1.4321114874738
20
2.76143567431403
30
0.0
 70
     32
  0
VERTEX
  8
MY3DLAYER
10
1.44061342865719
20
2.75263470747483
30
0.0
 70
     32
  0
VERTEX
  8
MY3DLAYER
10
1.45110353105312
20
2.74633409060713
30
0.0
 70
     32
  0
VERTEX
  8
MY3DLAYER
10
1.46286691151902
20
2.74296320033821
30
0.0
 70
     32
  0
VERTEX
  8
MY3DLAYER
10
1.47510191511604
20
2.74275175726923
30
0.0
 70
     32
  0
SEQEND
  0
POLYLINE
 8
Group#1
 66
     1
70
    8
 10
0.0
 20
 0.0
 30
0.0
  0
VERTEX
  8
MY3DLAYER
10
1.17285865675295
20
2.09312862965565
30
0.0
 70
     32
  0
VERTEX
  8
MY3DLAYER
10
1.17926092708715
20
2.10355700228797
30
0.0
 70
     32
  0
VERTEX
  8
MY3DLAYER
10
1.18274598390318
20
2.11528706623407
30
0.0
 70
     32
  0
VERTEX
  8
MY3DLAYER
10
1.18307632633833
20
2.12751943702089
30
0.0
 70
     32
  0
VERTEX
  8
MY3DLAYER
10
1.18022944210159
20
2.13942049879424
30
0.0
 70
     32
  0
VERTEX
  8
MY3DLAYER
10
1.17439934164897
20
2.15017921386171
30
0.0
 70
     32
  0
VERTEX
  8
MY3DLAYER
10
1.16598333669164
20
2.15906239357107
30
0.0
 70
     32
  0
VERTEX
  8
MY3DLAYER
10
1.15555496405933
20
2.16546466390527
30
0.0
 70
     32
  0
VERTEX
  8
MY3DLAYER
10
1.14382490011322
20
2.1689497207213
30
0.0
 70
     32
  0
VERTEX
  8
MY3DLAYER
10
1.1315925293264
20
2.16928006315645
30
0.0
 70
     32
  0
VERTEX
  8
MY3DLAYER
10
1.11969146755305
20
2.16643317891971
30
0.0
 70
     32
  0
VERTEX
  8
MY3DLAYER
10
1.10893275248558
20
2.16060307846709
30
0.0
 70
     32
  0
VERTEX
  8
MY3DLAYER
10
1.10004957277622
20
2.15218707350976
30
0.0
 70
     32
  0
VERTEX
  8
MY3DLAYER
10
1.09364730244202
20
2.14175870087744
30
0.0
 70
     32
  0
VERTEX
  8
MY3DLAYER
10
1.090162245626
20
2.13002863693134
30
0.0
 70
     32
  0
VERTEX
  8
MY3DLAYER
10
1.08983190319084
20
2.11779626614452
30
0.0
 70
     32
  0
VERTEX
  8
MY3DLAYER
10
1.09267878742758
20
2.10589520437117
30
0.0
 70
     32
  0
VERTEX
  8
MY3DLAYER
10
1.0985088878802
20
2.0951364893037
30
0.0
 70
     32
  0
VERTEX
  8
MY3DLAYER
10
1.10692489283753
20
2.08625330959434
30
0.0
 70
     32
  0
VERTEX
  8
MY3DLAYER
10
1.11735326546985
20
2.07985103926014
30
0.0
 70
     32
  0
VERTEX
  8
MY3DLAYER
10
1.12908332941595
20
2.07636598244412
30
0.0
 70
     32
  0
VERTEX
  8
MY3DLAYER
10
1.14131570020277
20
2.07603564000896
30
0.0
 70
     32
  0
VERTEX
  8
MY3DLAYER
10
1.15321676197612
20
2.0788825242457
30
0.0
 70
     32
  0
VERTEX
  8
MY3DLAYER
10
1.16397547704359
20
2.08471262469832
30
0.0
 70
     32
  0
VERTEX
  8
MY3DLAYER
10
1.17285865675295
20
2.09312862965565
30
0.0
 70
     32
  0
SEQEND
  0
POLYLINE
 8
Group#1
 66
     1
70
    8
 10
0.0
 20
 0.0
 30
0.0
  0
VERTEX
  8
MY3DLAYER
10
1.50423899316786
20
2.09087174349609
30
0.0
 70
     32
  0
VERTEX
  8
MY3DLAYER
10
1.51129193537904
20
2.10087154486194
30
0.0
 70
     32
  0
VERTEX
  8
MY3DLAYER
10
1.51551641537142
20
2.11235604702723
30
0.0
 70
     32
  0
VERTEX
  8
MY3DLAYER
10
1.5166245418148
20
2.12454260014844
30
0.0
 70
     32
  0
VERTEX
  8
MY3DLAYER
10
1.51454079772333
20
2.13660071076959
30
0.0
 70
     32
  0
VERTEX
  8
MY3DLAYER
10
1.5094071868133
20
2.14770863857882
30
0.0
 70
     32
  0
VERTEX
  8
MY3DLAYER
10
1.50157355618453
20
2.15710939665265
30
0.0
 70
     32
  0
VERTEX
  8
MY3DLAYER
10
1.49157375481869
20
2.16416233886383
30
0.0
 70
     32
  0
VERTEX
  8
MY3DLAYER
10
1.48008925265339
20
2.1683868188562
30
0.0
 70
     32
  0
VERTEX
  8
MY3DLAYER
10
1.46790269953218
20
2.16949494529959
30
0.0
 70
     32
  0
VERTEX
  8
MY3DLAYER
10
1.45584458891103
20
2.16741120120812
30
0.0
 70
     32
  0
VERTEX
  8
MY3DLAYER
10
1.4447366611018
20
2.16227759029809
30
0.0
 70
     32
  0
VERTEX
  8
MY3DLAYER
10
1.43533590302798
20
2.15444395966932
30
0.0
 70
     32
  0
VERTEX
  8
MY3DLAYER
10
1.4282829608168
20
2.14444415830347
30
0.0
 70
     32
  0
VERTEX
  8
MY3DLAYER
10
1.42405848082442
20
2.13295965613818
30
0.0
 70
     32
  0
VERTEX
  8
MY3DLAYER
10
1.42295035438104
20
2.12077310301697
30
0.0
 70
     32
  0
VERTEX
  8
MY3DLAYER
10
1.4250340984725
20
2.10871499239582
30
0.0
 70
     32
  0
VERTEX
  8
MY3DLAYER
10
1.43016770938254
20
2.09760706458659
30
0.0
 70
     32
  0
VERTEX
  8
MY3DLAYER
10
1.43800134001131
20
2.08820630651276
30
0.0
 70
     32
  0
VERTEX
  8
MY3DLAYER
10
1.44800114137715
20
2.08115336430158
30
0.0
 70
     32
  0
VERTEX
  8
MY3DLAYER
10
1.45948564354244
20
2.07692888430921
30
0.0
 70
     32
  0
VERTEX
  8
MY3DLAYER
10
1.47167219666366
20
2.07582075786582
30
0.0
 70
     32
  0
VERTEX
  8
MY3DLAYER
10
1.48373030728481
20
2.07790450195729
30
0.0
 70
     32
  0
VERTEX
  8
MY3DLAYER
10
1.49483823509403
20
2.08303811286732
30
0.0
 70
     32
  0
VERTEX
  8
MY3DLAYER
10
1.50423899316786
20
2.09087174349609
30
0.0
 70
     32
  0
SEQEND
  0
POLYLINE
 8
Group#1
 66
     1
70
    8
 10
0.0
 20
 0.0
 30
0.0
  0
VERTEX
  8
MY3DLAYER
10
1.13089820240541
20
2.50253575992599
30
0.0
 70
     32
  0
VERTEX
  8
MY3DLAYER
10
1.11904089306948
20
2.49951181606033
30
0.0
 70
     32
  0
VERTEX
  8
MY3DLAYER
10
1.10837026601536
20
2.49352201310342
30
0.0
 70
     32
  0
VERTEX
  8
MY3DLAYER
10
1.09961350684275
20
2.48497454622817
30
0.0
 70
     32
  0
VERTEX
  8
MY3DLAYER
10
1.09336737421803
20
2.47445191117677
30
0.0
 70
     32
  0
VERTEX
  8
MY3DLAYER
10
1.09005753175735
20
2.46267120813849
30
0.0
 70
     32
  0
VERTEX
  8
MY3DLAYER
10
1.08990953975463
20
2.45043527255686
30
0.0
 70
     32
  0
VERTEX
  8
MY3DLAYER
10
1.0929334836203
20
2.43857796322093
30
0.0
 70
     32
  0
VERTEX
  8
MY3DLAYER
10
1.0989232865772
20
2.42790733616682
30
0.0
 70
     32
  0
VERTEX
  8
MY3DLAYER
10
1.10747075345245
20
2.4191505769942
30
0.0
 70
     32
  0
VERTEX
  8
MY3DLAYER
10
1.11799338850385
20
2.41290444436948
30
0.0
 70
     32
  0
VERTEX
  8
MY3DLAYER
10
1.12977409154213
20
2.4095946019088
30
0.0
 70
     32
  0
VERTEX
  8
MY3DLAYER
10
1.14201002712376
20
2.40944660990609
30
0.0
 70
     32
  0
VERTEX
  8
MY3DLAYER
10
1.15386733645969
20
2.41247055377175
30
0.0
 70
     32
  0
VERTEX
  8
MY3DLAYER
10
1.16453796351381
20
2.41846035672866
30
0.0
 70
     32
  0
VERTEX
  8
MY3DLAYER
10
1.17329472268642
20
2.4270078236039
30
0.0
 70
     32
  0
VERTEX
  8
MY3DLAYER
10
1.17954085531114
20
2.43753045865531
30
0.0
 70
     32
  0
VERTEX
  8
MY3DLAYER
10
1.18285069777182
20
2.44931116169358
30
0.0
 70
     32
  0
VERTEX
  8
MY3DLAYER
10
1.18299868977454
20
2.46154709727521
30
0.0
 70
     32
  0
VERTEX
  8
MY3DLAYER
10
1.17997474590887
20
2.47340440661114
30
0.0
 70
     32
  0
VERTEX
  8
MY3DLAYER
10
1.17398494295197
20
2.48407503366526
30
0.0
 70
     32
  0
VERTEX
  8
MY3DLAYER
10
1.16543747607672
20
2.49283179283787
30
0.0
 70
     32
  0
VERTEX
  8
MY3DLAYER
10
1.15491484102532
20
2.4990779254626
30
0.0
 70
     32
  0
VERTEX
  8
MY3DLAYER
10
1.14313413798704
20
2.50238776792328
30
0.0
 70
     32
  0
VERTEX
  8
MY3DLAYER
10
1.13089820240541
20
2.50253575992599
30
0.0
 70
     32
  0
SEQEND
  0
POLYLINE
 8
Group#1
 66
     1
70
    8
 10
0.0
 20
 0.0
 30
0.0
  0
VERTEX
  8
MY3DLAYER
10
1.50293307846604
20
2.48913681528416
30
0.0
 70
     32
  0
VERTEX
  8
MY3DLAYER
10
1.49322494809792
20
2.49658612571843
30
0.0
 70
     32
  0
VERTEX
  8
MY3DLAYER
10
1.4819195908371
20
2.50126895802334
30
0.0
 70
     32
  0
VERTEX
  8
MY3DLAYER
10
1.46978744809792
20
2.50286618491604
30
0.0
 70
     32
  0
VERTEX
  8
MY3DLAYER
10
1.45765530535874
20
2.50126895802334
30
0.0
 70
     32
  0
VERTEX
  8
MY3DLAYER
10
1.44634994809792
20
2.49658612571843
30
0.0
 70
     32
  0
VERTEX
  8
MY3DLAYER
10
1.4366418177298
20
2.48913681528416
30
0.0
 70
     32
  0
VERTEX
  8
MY3DLAYER
10
1.42919250729552
20
2.47942868491604
30
0.0
 70
     32
  0
VERTEX
  8
MY3DLAYER
10
1.42450967499062
20
2.46812332765522
30
0.0
 70
     32
  0
VERTEX
  8
MY3DLAYER
10
1.42291244809792
20
2.45599118491604
30
0.0
 70
     32
  0
VERTEX
  8
MY3DLAYER
10
1.42450967499062
20
2.44385904217686
30
0.0
 70
     32
  0
VERTEX
  8
MY3DLAYER
10
1.42919250729552
20
2.43255368491604
30
0.0
 70
     32
  0
VERTEX
  8
MY3DLAYER
10
1.4366418177298
20
2.42284555454792
30
0.0
 70
     32
  0
VERTEX
  8
MY3DLAYER
10
1.44634994809792
20
2.41539624411364
30
0.0
 70
     32
  0
VERTEX
  8
MY3DLAYER
10
1.45765530535874
20
2.41071341180874
30
0.0
 70
     32
  0
VERTEX
  8
MY3DLAYER
10
1.46978744809792
20
2.40911618491604
30
0.0
 70
     32
  0
VERTEX
  8
MY3DLAYER
10
1.4819195908371
20
2.41071341180874
30
0.0
 70
     32
  0
VERTEX
  8
MY3DLAYER
10
1.49322494809792
20
2.41539624411364
30
0.0
 70
     32
  0
VERTEX
  8
MY3DLAYER
10
1.50293307846604
20
2.42284555454792
30
0.0
 70
     32
  0
VERTEX
  8
MY3DLAYER
10
1.51038238890031
20
2.43255368491604
30
0.0
 70
     32
  0
VERTEX
  8
MY3DLAYER
10
1.51506522120522
20
2.44385904217686
30
0.0
 70
     32
  0
VERTEX
  8
MY3DLAYER
10
1.51666244809792
20
2.45599118491604
30
0.0
 70
     32
  0
VERTEX
  8
MY3DLAYER
10
1.51506522120522
20
2.46812332765522
30
0.0
 70
     32
  0
VERTEX
  8
MY3DLAYER
10
1.51038238890031
20
2.47942868491604
30
0.0
 70
     32
  0
VERTEX
  8
MY3DLAYER
10
1.50293307846604
20
2.48913681528416
30
0.0
 70
     32
  0
SEQEND
  0
POLYLINE
 8
Group#1
 66
     1
70
    8
 10
0.0
 20
 0.0
 30
0.0
  0
VERTEX
  8
MY3DLAYER
10
1.63645411476459
20
2.93515785158271
30
0.0
 70
     32
  0
VERTEX
  8
MY3DLAYER
10
1.62509605686094
20
3.02143086661688
30
0.0
 70
     32
  0
VERTEX
  8
MY3DLAYER
10
1.62509605686094
20
3.02143086661688
30
0.0416666666666667
 70
     32
  0
VERTEX
  8
MY3DLAYER
10
1.63645411476459
20
2.93515785158271
30
0.0416666666666667
 70
     32
  0
VERTEX
  8
MY3DLAYER
10
1.63645411476459
20
2.93515785158271
30
0.0
 70
     32
  0
SEQEND
  0
POLYLINE
 8
Group#1
 66
     1
70
    8
 10
0.0
 20
 0.0
 30
0.0
  0
VERTEX
  8
MY3DLAYER
10
1.31203846091776
20
3.08067267910253
30
0.0
 70
     32
  0
VERTEX
  8
MY3DLAYER
10
1.34400454362514
20
3.07411619492185
30
0.0
 70
     32
  0
VERTEX
  8
MY3DLAYER
10
1.34400454362514
20
3.07411619492185
30
0.0416666666666667
 70
     32
  0
VERTEX
  8
MY3DLAYER
10
1.31203846091776
20
3.08067267910253
30
0.0416666666666667
 70
     32
  0
VERTEX
  8
MY3DLAYER
10
1.31203846091776
20
3.08067267910253
30
0.0
 70
     32
  0
SEQEND
  0
POLYLINE
 8
Group#1
 66
     1
70
    8
 10
0.0
 20
 0.0
 30
0.0
  0
VERTEX
  8
MY3DLAYER
10
1.27946465309054
20
3.07873232550031
30
0.0
 70
     32
  0
VERTEX
  8
MY3DLAYER
10
1.31203846091776
20
3.08067267910253
30
0.0
 70
     32
  0
VERTEX
  8
MY3DLAYER
10
1.31203846091776
20
3.08067267910253
30
0.0416666666666667
 70
     32
  0
VERTEX
  8
MY3DLAYER
10
1.27946465309054
20
3.07873232550031
30
0.0416666666666667
 70
     32
  0
VERTEX
  8
MY3DLAYER
10
1.27946465309054
20
3.07873232550031
30
0.0
 70
     32
  0
SEQEND
  0
POLYLINE
 8
Group#1
 66
     1
70
    8
 10
0.0
 20
 0.0
 30
0.0
  0
VERTEX
  8
MY3DLAYER
10
0.96978744809792
20
2.93515785158271
30
0.0
 70
     32
  0
VERTEX
  8
MY3DLAYER
10
0.96978744809792
20
1.95599118491604
30
0.0
 70
     32
  0
VERTEX
  8
MY3DLAYER
10
0.96978744809792
20
1.95599118491604
30
0.0416666666666667
 70
     32
  0
VERTEX
  8
MY3DLAYER
10
0.96978744809792
20
2.93515785158271
30
0.0416666666666667
 70
     32
  0
VERTEX
  8
MY3DLAYER
10
0.96978744809792
20
2.93515785158271
30
0.0
 70
     32
  0
SEQEND
  0
POLYLINE
 8
Group#1
 66
     1
70
    8
 10
0.0
 20
 0.0
 30
0.0
  0
VERTEX
  8
MY3DLAYER
10
0.981145506001563
20
3.02143086661688
30
0.0
 70
     32
  0
VERTEX
  8
MY3DLAYER
10
0.96978744809792
20
2.93515785158271
30
0.0
 70
     32
  0
VERTEX
  8
MY3DLAYER
10
0.96978744809792
20
2.93515785158271
30
0.0416666666666667
 70
     32
  0
VERTEX
  8
MY3DLAYER
10
0.981145506001563
20
3.02143086661688
30
0.0416666666666667
 70
     32
  0
VERTEX
  8
MY3DLAYER
10
0.981145506001563
20
3.02143086661688
30
0.0
 70
     32
  0
SEQEND
  0
POLYLINE
 8
Group#1
 66
     1
70
    8
 10
0.0
 20
 0.0
 30
0.0
  0
VERTEX
  8
MY3DLAYER
10
1.16397547704359
20
2.08471262469832
30
0.0
 70
     32
  0
VERTEX
  8
MY3DLAYER
10
1.15321676197612
20
2.0788825242457
30
0.0
 70
     32
  0
VERTEX
  8
MY3DLAYER
10
1.15321676197612
20
2.0788825242457
30
0.0416666666666667
 70
     32
  0
VERTEX
  8
MY3DLAYER
10
1.16397547704359
20
2.08471262469832
30
0.0416666666666667
 70
     32
  0
VERTEX
  8
MY3DLAYER
10
1.16397547704359
20
2.08471262469832
30
0.0
 70
     32
  0
SEQEND
  0
POLYLINE
 8
Group#1
 66
     1
70
    8
 10
0.0
 20
 0.0
 30
0.0
  0
VERTEX
  8
MY3DLAYER
10
1.59179591602607
20
3.10182451824937
30
0.0
 70
     32
  0
VERTEX
  8
MY3DLAYER
10
1.53882304182677
20
3.17086011197822
30
0.0
 70
     32
  0
VERTEX
  8
MY3DLAYER
10
1.53882304182677
20
3.17086011197822
30
0.0416666666666667
 70
     32
  0
VERTEX
  8
MY3DLAYER
10
1.59179591602607
20
3.10182451824937
30
0.0416666666666667
 70
     32
  0
VERTEX
  8
MY3DLAYER
10
1.59179591602607
20
3.10182451824937
30
0.0
 70
     32
  0
SEQEND
  0
POLYLINE
 8
Group#1
 66
     1
70
    8
 10
0.0
 20
 0.0
 30
0.0
  0
VERTEX
  8
MY3DLAYER
10
1.62509605686094
20
3.02143086661688
30
0.0
 70
     32
  0
VERTEX
  8
MY3DLAYER
10
1.59179591602607
20
3.10182451824937
30
0.0
 70
     32
  0
VERTEX
  8
MY3DLAYER
10
1.59179591602607
20
3.10182451824937
30
0.0416666666666667
 70
     32
  0
VERTEX
  8
MY3DLAYER
10
1.62509605686094
20
3.02143086661688
30
0.0416666666666667
 70
     32
  0
VERTEX
  8
MY3DLAYER
10
1.62509605686094
20
3.02143086661688
30
0.0
 70
     32
  0
SEQEND
  0
POLYLINE
 8
Group#1
 66
     1
70
    8
 10
0.0
 20
 0.0
 30
0.0
  0
VERTEX
  8
MY3DLAYER
10
1.17329472268642
20
2.4270078236039
30
0.0
 70
     32
  0
VERTEX
  8
MY3DLAYER
10
1.16453796351381
20
2.41846035672866
30
0.0
 70
     32
  0
VERTEX
  8
MY3DLAYER
10
1.16453796351381
20
2.41846035672866
30
0.0416666666666667
 70
     32
  0
VERTEX
  8
MY3DLAYER
10
1.17329472268642
20
2.4270078236039
30
0.0416666666666667
 70
     32
  0
VERTEX
  8
MY3DLAYER
10
1.17329472268642
20
2.4270078236039
30
0.0
 70
     32
  0
SEQEND
  0
POLYLINE
 8
Group#1
 66
     1
70
    8
 10
0.0
 20
 0.0
 30
0.0
  0
VERTEX
  8
MY3DLAYER
10
1.17954085531114
20
2.43753045865531
30
0.0
 70
     32
  0
VERTEX
  8
MY3DLAYER
10
1.17329472268642
20
2.4270078236039
30
0.0
 70
     32
  0
VERTEX
  8
MY3DLAYER
10
1.17329472268642
20
2.4270078236039
30
0.0416666666666667
 70
     32
  0
VERTEX
  8
MY3DLAYER
10
1.17954085531114
20
2.43753045865531
30
0.0416666666666667
 70
     32
  0
VERTEX
  8
MY3DLAYER
10
1.17954085531114
20
2.43753045865531
30
0.0
 70
     32
  0
SEQEND
  0
POLYLINE
 8
Group#1
 66
     1
70
    8
 10
0.0
 20
 0.0
 30
0.0
  0
VERTEX
  8
MY3DLAYER
10
1.18285069777182
20
2.44931116169358
30
0.0
 70
     32
  0
VERTEX
  8
MY3DLAYER
10
1.17954085531114
20
2.43753045865531
30
0.0
 70
     32
  0
VERTEX
  8
MY3DLAYER
10
1.17954085531114
20
2.43753045865531
30
0.0416666666666667
 70
     32
  0
VERTEX
  8
MY3DLAYER
10
1.18285069777182
20
2.44931116169358
30
0.0416666666666667
 70
     32
  0
VERTEX
  8
MY3DLAYER
10
1.18285069777182
20
2.44931116169358
30
0.0
 70
     32
  0
SEQEND
  0
POLYLINE
 8
Group#1
 66
     1
70
    8
 10
0.0
 20
 0.0
 30
0.0
  0
VERTEX
  8
MY3DLAYER
10
1.18299868977454
20
2.46154709727521
30
0.0
 70
     32
  0
VERTEX
  8
MY3DLAYER
10
1.18285069777182
20
2.44931116169358
30
0.0
 70
     32
  0
VERTEX
  8
MY3DLAYER
10
1.18285069777182
20
2.44931116169358
30
0.0416666666666667
 70
     32
  0
VERTEX
  8
MY3DLAYER
10
1.18299868977454
20
2.46154709727521
30
0.0416666666666667
 70
     32
  0
VERTEX
  8
MY3DLAYER
10
1.18299868977454
20
2.46154709727521
30
0.0
 70
     32
  0
SEQEND
  0
POLYLINE
 8
Group#1
 66
     1
70
    8
 10
0.0
 20
 0.0
 30
0.0
  0
VERTEX
  8
MY3DLAYER
10
1.17997474590887
20
2.47340440661114
30
0.0
 70
     32
  0
VERTEX
  8
MY3DLAYER
10
1.18299868977454
20
2.46154709727521
30
0.0
 70
     32
  0
VERTEX
  8
MY3DLAYER
10
1.18299868977454
20
2.46154709727521
30
0.0416666666666667
 70
     32
  0
VERTEX
  8
MY3DLAYER
10
1.17997474590887
20
2.47340440661114
30
0.0416666666666667
 70
     32
  0
VERTEX
  8
MY3DLAYER
10
1.17997474590887
20
2.47340440661114
30
0.0
 70
     32
  0
SEQEND
  0
POLYLINE
 8
Group#1
 66
     1
70
    8
 10
0.0
 20
 0.0
 30
0.0
  0
VERTEX
  8
MY3DLAYER
10
1.5166245418148
20
2.12454260014844
30
0.0
 70
     32
  0
VERTEX
  8
MY3DLAYER
10
1.51551641537142
20
2.11235604702723
30
0.0
 70
     32
  0
VERTEX
  8
MY3DLAYER
10
1.51551641537142
20
2.11235604702723
30
0.0416666666666667
 70
     32
  0
VERTEX
  8
MY3DLAYER
10
1.5166245418148
20
2.12454260014844
30
0.0416666666666667
 70
     32
  0
VERTEX
  8
MY3DLAYER
10
1.5166245418148
20
2.12454260014844
30
0.0
 70
     32
  0
SEQEND
  0
POLYLINE
 8
Group#1
 66
     1
70
    8
 10
0.0
 20
 0.0
 30
0.0
  0
VERTEX
  8
MY3DLAYER
10
1.51454079772333
20
2.13660071076959
30
0.0
 70
     32
  0
VERTEX
  8
MY3DLAYER
10
1.5166245418148
20
2.12454260014844
30
0.0
 70
     32
  0
VERTEX
  8
MY3DLAYER
10
1.5166245418148
20
2.12454260014844
30
0.0416666666666667
 70
     32
  0
VERTEX
  8
MY3DLAYER
10
1.51454079772333
20
2.13660071076959
30
0.0416666666666667
 70
     32
  0
VERTEX
  8
MY3DLAYER
10
1.51454079772333
20
2.13660071076959
30
0.0
 70
     32
  0
SEQEND
  0
POLYLINE
 8
Group#1
 66
     1
70
    8
 10
0.0
 20
 0.0
 30
0.0
  0
VERTEX
  8
MY3DLAYER
10
1.5094071868133
20
2.14770863857882
30
0.0
 70
     32
  0
VERTEX
  8
MY3DLAYER
10
1.51454079772333
20
2.13660071076959
30
0.0
 70
     32
  0
VERTEX
  8
MY3DLAYER
10
1.51454079772333
20
2.13660071076959
30
0.0416666666666667
 70
     32
  0
VERTEX
  8
MY3DLAYER
10
1.5094071868133
20
2.14770863857882
30
0.0416666666666667
 70
     32
  0
VERTEX
  8
MY3DLAYER
10
1.5094071868133
20
2.14770863857882
30
0.0
 70
     32
  0
SEQEND
  0
POLYLINE
 8
Group#1
 66
     1
70
    8
 10
0.0
 20
 0.0
 30
0.0
  0
VERTEX
  8
MY3DLAYER
10
1.50157355618453
20
2.15710939665265
30
0.0
 70
     32
  0
VERTEX
  8
MY3DLAYER
10
1.5094071868133
20
2.14770863857882
30
0.0
 70
     32
  0
VERTEX
  8
MY3DLAYER
10
1.5094071868133
20
2.14770863857882
30
0.0416666666666667
 70
     32
  0
VERTEX
  8
MY3DLAYER
10
1.50157355618453
20
2.15710939665265
30
0.0416666666666667
 70
     32
  0
VERTEX
  8
MY3DLAYER
10
1.50157355618453
20
2.15710939665265
30
0.0
 70
     32
  0
SEQEND
  0
POLYLINE
 8
Group#1
 66
     1
70
    8
 10
0.0
 20
 0.0
 30
0.0
  0
VERTEX
  8
MY3DLAYER
10
1.49157375481869
20
2.16416233886383
30
0.0
 70
     32
  0
VERTEX
  8
MY3DLAYER
10
1.50157355618453
20
2.15710939665265
30
0.0
 70
     32
  0
VERTEX
  8
MY3DLAYER
10
1.50157355618453
20
2.15710939665265
30
0.0416666666666667
 70
     32
  0
VERTEX
  8
MY3DLAYER
10
1.49157375481869
20
2.16416233886383
30
0.0416666666666667
 70
     32
  0
VERTEX
  8
MY3DLAYER
10
1.49157375481869
20
2.16416233886383
30
0.0
 70
     32
  0
SEQEND
  0
POLYLINE
 8
Group#1
 66
     1
70
    8
 10
0.0
 20
 0.0
 30
0.0
  0
VERTEX
  8
MY3DLAYER
10
1.48008925265339
20
2.1683868188562
30
0.0
 70
     32
  0
VERTEX
  8
MY3DLAYER
10
1.49157375481869
20
2.16416233886383
30
0.0
 70
     32
  0
VERTEX
  8
MY3DLAYER
10
1.49157375481869
20
2.16416233886383
30
0.0416666666666667
 70
     32
  0
VERTEX
  8
MY3DLAYER
10
1.48008925265339
20
2.1683868188562
30
0.0416666666666667
 70
     32
  0
VERTEX
  8
MY3DLAYER
10
1.48008925265339
20
2.1683868188562
30
0.0
 70
     32
  0
SEQEND
  0
POLYLINE
 8
Group#1
 66
     1
70
    8
 10
0.0
 20
 0.0
 30
0.0
  0
VERTEX
  8
MY3DLAYER
10
1.46790269953218
20
2.16949494529959
30
0.0
 70
     32
  0
VERTEX
  8
MY3DLAYER
10
1.48008925265339
20
2.1683868188562
30
0.0
 70
     32
  0
VERTEX
  8
MY3DLAYER
10
1.48008925265339
20
2.1683868188562
30
0.0416666666666667
 70
     32
  0
VERTEX
  8
MY3DLAYER
10
1.46790269953218
20
2.16949494529959
30
0.0416666666666667
 70
     32
  0
VERTEX
  8
MY3DLAYER
10
1.46790269953218
20
2.16949494529959
30
0.0
 70
     32
  0
SEQEND
  0
POLYLINE
 8
Group#1
 66
     1
70
    8
 10
0.0
 20
 0.0
 30
0.0
  0
VERTEX
  8
MY3DLAYER
10
1.45584458891103
20
2.16741120120812
30
0.0
 70
     32
  0
VERTEX
  8
MY3DLAYER
10
1.46790269953218
20
2.16949494529959
30
0.0
 70
     32
  0
VERTEX
  8
MY3DLAYER
10
1.46790269953218
20
2.16949494529959
30
0.0416666666666667
 70
     32
  0
VERTEX
  8
MY3DLAYER
10
1.45584458891103
20
2.16741120120812
30
0.0416666666666667
 70
     32
  0
VERTEX
  8
MY3DLAYER
10
1.45584458891103
20
2.16741120120812
30
0.0
 70
     32
  0
SEQEND
  0
POLYLINE
 8
Group#1
 66
     1
70
    8
 10
0.0
 20
 0.0
 30
0.0
  0
VERTEX
  8
MY3DLAYER
10
1.4447366611018
20
2.16227759029809
30
0.0
 70
     32
  0
VERTEX
  8
MY3DLAYER
10
1.45584458891103
20
2.16741120120812
30
0.0
 70
     32
  0
VERTEX
  8
MY3DLAYER
10
1.45584458891103
20
2.16741120120812
30
0.0416666666666667
 70
     32
  0
VERTEX
  8
MY3DLAYER
10
1.4447366611018
20
2.16227759029809
30
0.0416666666666667
 70
     32
  0
VERTEX
  8
MY3DLAYER
10
1.4447366611018
20
2.16227759029809
30
0.0
 70
     32
  0
SEQEND
  0
POLYLINE
 8
Group#1
 66
     1
70
    8
 10
0.0
 20
 0.0
 30
0.0
  0
VERTEX
  8
MY3DLAYER
10
1.43533590302798
20
2.15444395966932
30
0.0
 70
     32
  0
VERTEX
  8
MY3DLAYER
10
1.4447366611018
20
2.16227759029809
30
0.0
 70
     32
  0
VERTEX
  8
MY3DLAYER
10
1.4447366611018
20
2.16227759029809
30
0.0416666666666667
 70
     32
  0
VERTEX
  8
MY3DLAYER
10
1.43533590302798
20
2.15444395966932
30
0.0416666666666667
 70
     32
  0
VERTEX
  8
MY3DLAYER
10
1.43533590302798
20
2.15444395966932
30
0.0
 70
     32
  0
SEQEND
  0
POLYLINE
 8
Group#1
 66
     1
70
    8
 10
0.0
 20
 0.0
 30
0.0
  0
VERTEX
  8
MY3DLAYER
10
1.4282829608168
20
2.14444415830347
30
0.0
 70
     32
  0
VERTEX
  8
MY3DLAYER
10
1.43533590302798
20
2.15444395966932
30
0.0
 70
     32
  0
VERTEX
  8
MY3DLAYER
10
1.43533590302798
20
2.15444395966932
30
0.0416666666666667
 70
     32
  0
VERTEX
  8
MY3DLAYER
10
1.4282829608168
20
2.14444415830347
30
0.0416666666666667
 70
     32
  0
VERTEX
  8
MY3DLAYER
10
1.4282829608168
20
2.14444415830347
30
0.0
 70
     32
  0
SEQEND
  0
POLYLINE
 8
Group#1
 66
     1
70
    8
 10
0.0
 20
 0.0
 30
0.0
  0
VERTEX
  8
MY3DLAYER
10
1.42405848082442
20
2.13295965613818
30
0.0
 70
     32
  0
VERTEX
  8
MY3DLAYER
10
1.4282829608168
20
2.14444415830347
30
0.0
 70
     32
  0
VERTEX
  8
MY3DLAYER
10
1.4282829608168
20
2.14444415830347
30
0.0416666666666667
 70
     32
  0
VERTEX
  8
MY3DLAYER
10
1.42405848082442
20
2.13295965613818
30
0.0416666666666667
 70
     32
  0
VERTEX
  8
MY3DLAYER
10
1.42405848082442
20
2.13295965613818
30
0.0
 70
     32
  0
SEQEND
  0
POLYLINE
 8
Group#1
 66
     1
70
    8
 10
0.0
 20
 0.0
 30
0.0
  0
VERTEX
  8
MY3DLAYER
10
1.42295035438104
20
2.12077310301697
30
0.0
 70
     32
  0
VERTEX
  8
MY3DLAYER
10
1.42405848082442
20
2.13295965613818
30
0.0
 70
     32
  0
VERTEX
  8
MY3DLAYER
10
1.42405848082442
20
2.13295965613818
30
0.0416666666666667
 70
     32
  0
VERTEX
  8
MY3DLAYER
10
1.42295035438104
20
2.12077310301697
30
0.0416666666666667
 70
     32
  0
VERTEX
  8
MY3DLAYER
10
1.42295035438104
20
2.12077310301697
30
0.0
 70
     32
  0
SEQEND
  0
POLYLINE
 8
Group#1
 66
     1
70
    8
 10
0.0
 20
 0.0
 30
0.0
  0
VERTEX
  8
MY3DLAYER
10
1.4250340984725
20
2.10871499239582
30
0.0
 70
     32
  0
VERTEX
  8
MY3DLAYER
10
1.42295035438104
20
2.12077310301697
30
0.0
 70
     32
  0
VERTEX
  8
MY3DLAYER
10
1.42295035438104
20
2.12077310301697
30
0.0416666666666667
 70
     32
  0
VERTEX
  8
MY3DLAYER
10
1.4250340984725
20
2.10871499239582
30
0.0416666666666667
 70
     32
  0
VERTEX
  8
MY3DLAYER
10
1.4250340984725
20
2.10871499239582
30
0.0
 70
     32
  0
SEQEND
  0
POLYLINE
 8
Group#1
 66
     1
70
    8
 10
0.0
 20
 0.0
 30
0.0
  0
VERTEX
  8
MY3DLAYER
10
1.43016770938254
20
2.09760706458659
30
0.0
 70
     32
  0
VERTEX
  8
MY3DLAYER
10
1.4250340984725
20
2.10871499239582
30
0.0
 70
     32
  0
VERTEX
  8
MY3DLAYER
10
1.4250340984725
20
2.10871499239582
30
0.0416666666666667
 70
     32
  0
VERTEX
  8
MY3DLAYER
10
1.43016770938254
20
2.09760706458659
30
0.0416666666666667
 70
     32
  0
VERTEX
  8
MY3DLAYER
10
1.43016770938254
20
2.09760706458659
30
0.0
 70
     32
  0
SEQEND
  0
POLYLINE
 8
Group#1
 66
     1
70
    8
 10
0.0
 20
 0.0
 30
0.0
  0
VERTEX
  8
MY3DLAYER
10
1.43800134001131
20
2.08820630651276
30
0.0
 70
     32
  0
VERTEX
  8
MY3DLAYER
10
1.43016770938254
20
2.09760706458659
30
0.0
 70
     32
  0
VERTEX
  8
MY3DLAYER
10
1.43016770938254
20
2.09760706458659
30
0.0416666666666667
 70
     32
  0
VERTEX
  8
MY3DLAYER
10
1.43800134001131
20
2.08820630651276
30
0.0416666666666667
 70
     32
  0
VERTEX
  8
MY3DLAYER
10
1.43800134001131
20
2.08820630651276
30
0.0
 70
     32
  0
SEQEND
  0
POLYLINE
 8
Group#1
 66
     1
70
    8
 10
0.0
 20
 0.0
 30
0.0
  0
VERTEX
  8
MY3DLAYER
10
1.44800114137715
20
2.08115336430158
30
0.0
 70
     32
  0
VERTEX
  8
MY3DLAYER
10
1.43800134001131
20
2.08820630651276
30
0.0
 70
     32
  0
VERTEX
  8
MY3DLAYER
10
1.43800134001131
20
2.08820630651276
30
0.0416666666666667
 70
     32
  0
VERTEX
  8
MY3DLAYER
10
1.44800114137715
20
2.08115336430158
30
0.0416666666666667
 70
     32
  0
VERTEX
  8
MY3DLAYER
10
1.44800114137715
20
2.08115336430158
30
0.0
 70
     32
  0
SEQEND
  0
POLYLINE
 8
Group#1
 66
     1
70
    8
 10
0.0
 20
 0.0
 30
0.0
  0
VERTEX
  8
MY3DLAYER
10
1.45948564354244
20
2.07692888430921
30
0.0
 70
     32
  0
VERTEX
  8
MY3DLAYER
10
1.44800114137715
20
2.08115336430158
30
0.0
 70
     32
  0
VERTEX
  8
MY3DLAYER
10
1.44800114137715
20
2.08115336430158
30
0.0416666666666667
 70
     32
  0
VERTEX
  8
MY3DLAYER
10
1.45948564354244
20
2.07692888430921
30
0.0416666666666667
 70
     32
  0
VERTEX
  8
MY3DLAYER
10
1.45948564354244
20
2.07692888430921
30
0.0
 70
     32
  0
SEQEND
  0
POLYLINE
 8
Group#1
 66
     1
70
    8
 10
0.0
 20
 0.0
 30
0.0
  0
VERTEX
  8
MY3DLAYER
10
1.47167219666366
20
2.07582075786582
30
0.0
 70
     32
  0
VERTEX
  8
MY3DLAYER
10
1.45948564354244
20
2.07692888430921
30
0.0
 70
     32
  0
VERTEX
  8
MY3DLAYER
10
1.45948564354244
20
2.07692888430921
30
0.0416666666666667
 70
     32
  0
VERTEX
  8
MY3DLAYER
10
1.47167219666366
20
2.07582075786582
30
0.0416666666666667
 70
     32
  0
VERTEX
  8
MY3DLAYER
10
1.47167219666366
20
2.07582075786582
30
0.0
 70
     32
  0
SEQEND
  0
POLYLINE
 8
Group#1
 66
     1
70
    8
 10
0.0
 20
 0.0
 30
0.0
  0
VERTEX
  8
MY3DLAYER
10
1.48373030728481
20
2.07790450195729
30
0.0
 70
     32
  0
VERTEX
  8
MY3DLAYER
10
1.47167219666366
20
2.07582075786582
30
0.0
 70
     32
  0
VERTEX
  8
MY3DLAYER
10
1.47167219666366
20
2.07582075786582
30
0.0416666666666667
 70
     32
  0
VERTEX
  8
MY3DLAYER
10
1.48373030728481
20
2.07790450195729
30
0.0416666666666667
 70
     32
  0
VERTEX
  8
MY3DLAYER
10
1.48373030728481
20
2.07790450195729
30
0.0
 70
     32
  0
SEQEND
  0
POLYLINE
 8
Group#1
 66
     1
70
    8
 10
0.0
 20
 0.0
 30
0.0
  0
VERTEX
  8
MY3DLAYER
10
1.49483823509403
20
2.08303811286732
30
0.0
 70
     32
  0
VERTEX
  8
MY3DLAYER
10
1.48373030728481
20
2.07790450195729
30
0.0
 70
     32
  0
VERTEX
  8
MY3DLAYER
10
1.48373030728481
20
2.07790450195729
30
0.0416666666666667
 70
     32
  0
VERTEX
  8
MY3DLAYER
10
1.49483823509403
20
2.08303811286732
30
0.0416666666666667
 70
     32
  0
VERTEX
  8
MY3DLAYER
10
1.49483823509403
20
2.08303811286732
30
0.0
 70
     32
  0
SEQEND
  0
POLYLINE
 8
Group#1
 66
     1
70
    8
 10
0.0
 20
 0.0
 30
0.0
  0
VERTEX
  8
MY3DLAYER
10
1.50423899316786
20
2.09087174349609
30
0.0
 70
     32
  0
VERTEX
  8
MY3DLAYER
10
1.49483823509403
20
2.08303811286732
30
0.0
 70
     32
  0
VERTEX
  8
MY3DLAYER
10
1.49483823509403
20
2.08303811286732
30
0.0416666666666667
 70
     32
  0
VERTEX
  8
MY3DLAYER
10
1.50423899316786
20
2.09087174349609
30
0.0416666666666667
 70
     32
  0
VERTEX
  8
MY3DLAYER
10
1.50423899316786
20
2.09087174349609
30
0.0
 70
     32
  0
SEQEND
  0
POLYLINE
 8
Group#1
 66
     1
70
    8
 10
0.0
 20
 0.0
 30
0.0
  0
VERTEX
  8
MY3DLAYER
10
1.11904089306948
20
2.49951181606033
30
0.0
 70
     32
  0
VERTEX
  8
MY3DLAYER
10
1.13089820240541
20
2.50253575992599
30
0.0
 70
     32
  0
VERTEX
  8
MY3DLAYER
10
1.13089820240541
20
2.50253575992599
30
0.0416666666666667
 70
     32
  0
VERTEX
  8
MY3DLAYER
10
1.11904089306948
20
2.49951181606033
30
0.0416666666666667
 70
     32
  0
VERTEX
  8
MY3DLAYER
10
1.11904089306948
20
2.49951181606033
30
0.0
 70
     32
  0
SEQEND
  0
POLYLINE
 8
Group#1
 66
     1
70
    8
 10
0.0
 20
 0.0
 30
0.0
  0
VERTEX
  8
MY3DLAYER
10
1.10837026601536
20
2.49352201310342
30
0.0
 70
     32
  0
VERTEX
  8
MY3DLAYER
10
1.11904089306948
20
2.49951181606033
30
0.0
 70
     32
  0
VERTEX
  8
MY3DLAYER
10
1.11904089306948
20
2.49951181606033
30
0.0416666666666667
 70
     32
  0
VERTEX
  8
MY3DLAYER
10
1.10837026601536
20
2.49352201310342
30
0.0416666666666667
 70
     32
  0
VERTEX
  8
MY3DLAYER
10
1.10837026601536
20
2.49352201310342
30
0.0
 70
     32
  0
SEQEND
  0
POLYLINE
 8
Group#1
 66
     1
70
    8
 10
0.0
 20
 0.0
 30
0.0
  0
VERTEX
  8
MY3DLAYER
10
1.09961350684275
20
2.48497454622817
30
0.0
 70
     32
  0
VERTEX
  8
MY3DLAYER
10
1.10837026601536
20
2.49352201310342
30
0.0
 70
     32
  0
VERTEX
  8
MY3DLAYER
10
1.10837026601536
20
2.49352201310342
30
0.0416666666666667
 70
     32
  0
VERTEX
  8
MY3DLAYER
10
1.09961350684275
20
2.48497454622817
30
0.0416666666666667
 70
     32
  0
VERTEX
  8
MY3DLAYER
10
1.09961350684275
20
2.48497454622817
30
0.0
 70
     32
  0
SEQEND
  0
POLYLINE
 8
Group#1
 66
     1
70
    8
 10
0.0
 20
 0.0
 30
0.0
  0
VERTEX
  8
MY3DLAYER
10
1.09336737421803
20
2.47445191117677
30
0.0
 70
     32
  0
VERTEX
  8
MY3DLAYER
10
1.09961350684275
20
2.48497454622817
30
0.0
 70
     32
  0
VERTEX
  8
MY3DLAYER
10
1.09961350684275
20
2.48497454622817
30
0.0416666666666667
 70
     32
  0
VERTEX
  8
MY3DLAYER
10
1.09336737421803
20
2.47445191117677
30
0.0416666666666667
 70
     32
  0
VERTEX
  8
MY3DLAYER
10
1.09336737421803
20
2.47445191117677
30
0.0
 70
     32
  0
SEQEND
  0
POLYLINE
 8
Group#1
 66
     1
70
    8
 10
0.0
 20
 0.0
 30
0.0
  0
VERTEX
  8
MY3DLAYER
10
1.09005753175735
20
2.46267120813849
30
0.0
 70
     32
  0
VERTEX
  8
MY3DLAYER
10
1.09336737421803
20
2.47445191117677
30
0.0
 70
     32
  0
VERTEX
  8
MY3DLAYER
10
1.09336737421803
20
2.47445191117677
30
0.0416666666666667
 70
     32
  0
VERTEX
  8
MY3DLAYER
10
1.09005753175735
20
2.46267120813849
30
0.0416666666666667
 70
     32
  0
VERTEX
  8
MY3DLAYER
10
1.09005753175735
20
2.46267120813849
30
0.0
 70
     32
  0
SEQEND
  0
POLYLINE
 8
Group#1
 66
     1
70
    8
 10
0.0
 20
 0.0
 30
0.0
  0
VERTEX
  8
MY3DLAYER
10
1.08990953975463
20
2.45043527255686
30
0.0
 70
     32
  0
VERTEX
  8
MY3DLAYER
10
1.09005753175735
20
2.46267120813849
30
0.0
 70
     32
  0
VERTEX
  8
MY3DLAYER
10
1.09005753175735
20
2.46267120813849
30
0.0416666666666667
 70
     32
  0
VERTEX
  8
MY3DLAYER
10
1.08990953975463
20
2.45043527255686
30
0.0416666666666667
 70
     32
  0
VERTEX
  8
MY3DLAYER
10
1.08990953975463
20
2.45043527255686
30
0.0
 70
     32
  0
SEQEND
  0
POLYLINE
 8
Group#1
 66
     1
70
    8
 10
0.0
 20
 0.0
 30
0.0
  0
VERTEX
  8
MY3DLAYER
10
1.0929334836203
20
2.43857796322093
30
0.0
 70
     32
  0
VERTEX
  8
MY3DLAYER
10
1.08990953975463
20
2.45043527255686
30
0.0
 70
     32
  0
VERTEX
  8
MY3DLAYER
10
1.08990953975463
20
2.45043527255686
30
0.0416666666666667
 70
     32
  0
VERTEX
  8
MY3DLAYER
10
1.0929334836203
20
2.43857796322093
30
0.0416666666666667
 70
     32
  0
VERTEX
  8
MY3DLAYER
10
1.0929334836203
20
2.43857796322093
30
0.0
 70
     32
  0
SEQEND
  0
POLYLINE
 8
Group#1
 66
     1
70
    8
 10
0.0
 20
 0.0
 30
0.0
  0
VERTEX
  8
MY3DLAYER
10
1.0989232865772
20
2.42790733616682
30
0.0
 70
     32
  0
VERTEX
  8
MY3DLAYER
10
1.0929334836203
20
2.43857796322093
30
0.0
 70
     32
  0
VERTEX
  8
MY3DLAYER
10
1.0929334836203
20
2.43857796322093
30
0.0416666666666667
 70
     32
  0
VERTEX
  8
MY3DLAYER
10
1.0989232865772
20
2.42790733616682
30
0.0416666666666667
 70
     32
  0
VERTEX
  8
MY3DLAYER
10
1.0989232865772
20
2.42790733616682
30
0.0
 70
     32
  0
SEQEND
  0
POLYLINE
 8
Group#1
 66
     1
70
    8
 10
0.0
 20
 0.0
 30
0.0
  0
VERTEX
  8
MY3DLAYER
10
1.10747075345245
20
2.4191505769942
30
0.0
 70
     32
  0
VERTEX
  8
MY3DLAYER
10
1.0989232865772
20
2.42790733616682
30
0.0
 70
     32
  0
VERTEX
  8
MY3DLAYER
10
1.0989232865772
20
2.42790733616682
30
0.0416666666666667
 70
     32
  0
VERTEX
  8
MY3DLAYER
10
1.10747075345245
20
2.4191505769942
30
0.0416666666666667
 70
     32
  0
VERTEX
  8
MY3DLAYER
10
1.10747075345245
20
2.4191505769942
30
0.0
 70
     32
  0
SEQEND
  0
POLYLINE
 8
Group#1
 66
     1
70
    8
 10
0.0
 20
 0.0
 30
0.0
  0
VERTEX
  8
MY3DLAYER
10
1.11799338850385
20
2.41290444436948
30
0.0
 70
     32
  0
VERTEX
  8
MY3DLAYER
10
1.10747075345245
20
2.4191505769942
30
0.0
 70
     32
  0
VERTEX
  8
MY3DLAYER
10
1.10747075345245
20
2.4191505769942
30
0.0416666666666667
 70
     32
  0
VERTEX
  8
MY3DLAYER
10
1.11799338850385
20
2.41290444436948
30
0.0416666666666667
 70
     32
  0
VERTEX
  8
MY3DLAYER
10
1.11799338850385
20
2.41290444436948
30
0.0
 70
     32
  0
SEQEND
  0
POLYLINE
 8
Group#1
 66
     1
70
    8
 10
0.0
 20
 0.0
 30
0.0
  0
VERTEX
  8
MY3DLAYER
10
1.15386733645969
20
2.41247055377175
30
0.0
 70
     32
  0
VERTEX
  8
MY3DLAYER
10
1.14201002712376
20
2.40944660990609
30
0.0
 70
     32
  0
VERTEX
  8
MY3DLAYER
10
1.14201002712376
20
2.40944660990609
30
0.0416666666666667
 70
     32
  0
VERTEX
  8
MY3DLAYER
10
1.15386733645969
20
2.41247055377175
30
0.0416666666666667
 70
     32
  0
VERTEX
  8
MY3DLAYER
10
1.15386733645969
20
2.41247055377175
30
0.0
 70
     32
  0
SEQEND
  0
POLYLINE
 8
Group#1
 66
     1
70
    8
 10
0.0
 20
 0.0
 30
0.0
  0
VERTEX
  8
MY3DLAYER
10
1.16453796351381
20
2.41846035672866
30
0.0
 70
     32
  0
VERTEX
  8
MY3DLAYER
10
1.15386733645969
20
2.41247055377175
30
0.0
 70
     32
  0
VERTEX
  8
MY3DLAYER
10
1.15386733645969
20
2.41247055377175
30
0.0416666666666667
 70
     32
  0
VERTEX
  8
MY3DLAYER
10
1.16453796351381
20
2.41846035672866
30
0.0416666666666667
 70
     32
  0
VERTEX
  8
MY3DLAYER
10
1.16453796351381
20
2.41846035672866
30
0.0
 70
     32
  0
SEQEND
  0
POLYLINE
 8
Group#1
 66
     1
70
    8
 10
0.0
 20
 0.0
 30
0.0
  0
VERTEX
  8
MY3DLAYER
10
1.13089820240541
20
2.50253575992599
30
0.0
 70
     32
  0
VERTEX
  8
MY3DLAYER
10
1.14313413798704
20
2.50238776792328
30
0.0
 70
     32
  0
VERTEX
  8
MY3DLAYER
10
1.14313413798704
20
2.50238776792328
30
0.0416666666666667
 70
     32
  0
VERTEX
  8
MY3DLAYER
10
1.13089820240541
20
2.50253575992599
30
0.0416666666666667
 70
     32
  0
VERTEX
  8
MY3DLAYER
10
1.13089820240541
20
2.50253575992599
30
0.0
 70
     32
  0
SEQEND
  0
POLYLINE
 8
Group#1
 66
     1
70
    8
 10
0.0
 20
 0.0
 30
0.0
  0
VERTEX
  8
MY3DLAYER
10
1.49322494809792
20
2.49658612571843
30
0.0
 70
     32
  0
VERTEX
  8
MY3DLAYER
10
1.50293307846604
20
2.48913681528416
30
0.0
 70
     32
  0
VERTEX
  8
MY3DLAYER
10
1.50293307846604
20
2.48913681528416
30
0.0416666666666667
 70
     32
  0
VERTEX
  8
MY3DLAYER
10
1.49322494809792
20
2.49658612571843
30
0.0416666666666667
 70
     32
  0
VERTEX
  8
MY3DLAYER
10
1.49322494809792
20
2.49658612571843
30
0.0
 70
     32
  0
SEQEND
  0
POLYLINE
 8
Group#1
 66
     1
70
    8
 10
0.0
 20
 0.0
 30
0.0
  0
VERTEX
  8
MY3DLAYER
10
1.4819195908371
20
2.50126895802334
30
0.0
 70
     32
  0
VERTEX
  8
MY3DLAYER
10
1.49322494809792
20
2.49658612571843
30
0.0
 70
     32
  0
VERTEX
  8
MY3DLAYER
10
1.49322494809792
20
2.49658612571843
30
0.0416666666666667
 70
     32
  0
VERTEX
  8
MY3DLAYER
10
1.4819195908371
20
2.50126895802334
30
0.0416666666666667
 70
     32
  0
VERTEX
  8
MY3DLAYER
10
1.4819195908371
20
2.50126895802334
30
0.0
 70
     32
  0
SEQEND
  0
POLYLINE
 8
Group#1
 66
     1
70
    8
 10
0.0
 20
 0.0
 30
0.0
  0
VERTEX
  8
MY3DLAYER
10
1.46978744809792
20
2.50286618491604
30
0.0
 70
     32
  0
VERTEX
  8
MY3DLAYER
10
1.4819195908371
20
2.50126895802334
30
0.0
 70
     32
  0
VERTEX
  8
MY3DLAYER
10
1.4819195908371
20
2.50126895802334
30
0.0416666666666667
 70
     32
  0
VERTEX
  8
MY3DLAYER
10
1.46978744809792
20
2.50286618491604
30
0.0416666666666667
 70
     32
  0
VERTEX
  8
MY3DLAYER
10
1.46978744809792
20
2.50286618491604
30
0.0
 70
     32
  0
SEQEND
  0
POLYLINE
 8
Group#1
 66
     1
70
    8
 10
0.0
 20
 0.0
 30
0.0
  0
VERTEX
  8
MY3DLAYER
10
1.45765530535874
20
2.50126895802334
30
0.0
 70
     32
  0
VERTEX
  8
MY3DLAYER
10
1.46978744809792
20
2.50286618491604
30
0.0
 70
     32
  0
VERTEX
  8
MY3DLAYER
10
1.46978744809792
20
2.50286618491604
30
0.0416666666666667
 70
     32
  0
VERTEX
  8
MY3DLAYER
10
1.45765530535874
20
2.50126895802334
30
0.0416666666666667
 70
     32
  0
VERTEX
  8
MY3DLAYER
10
1.45765530535874
20
2.50126895802334
30
0.0
 70
     32
  0
SEQEND
  0
POLYLINE
 8
Group#1
 66
     1
70
    8
 10
0.0
 20
 0.0
 30
0.0
  0
VERTEX
  8
MY3DLAYER
10
1.44634994809792
20
2.49658612571843
30
0.0
 70
     32
  0
VERTEX
  8
MY3DLAYER
10
1.45765530535874
20
2.50126895802334
30
0.0
 70
     32
  0
VERTEX
  8
MY3DLAYER
10
1.45765530535874
20
2.50126895802334
30
0.0416666666666667
 70
     32
  0
VERTEX
  8
MY3DLAYER
10
1.44634994809792
20
2.49658612571843
30
0.0416666666666667
 70
     32
  0
VERTEX
  8
MY3DLAYER
10
1.44634994809792
20
2.49658612571843
30
0.0
 70
     32
  0
SEQEND
  0
POLYLINE
 8
Group#1
 66
     1
70
    8
 10
0.0
 20
 0.0
 30
0.0
  0
VERTEX
  8
MY3DLAYER
10
1.4366418177298
20
2.48913681528416
30
0.0
 70
     32
  0
VERTEX
  8
MY3DLAYER
10
1.44634994809792
20
2.49658612571843
30
0.0
 70
     32
  0
VERTEX
  8
MY3DLAYER
10
1.44634994809792
20
2.49658612571843
30
0.0416666666666667
 70
     32
  0
VERTEX
  8
MY3DLAYER
10
1.4366418177298
20
2.48913681528416
30
0.0416666666666667
 70
     32
  0
VERTEX
  8
MY3DLAYER
10
1.4366418177298
20
2.48913681528416
30
0.0
 70
     32
  0
SEQEND
  0
POLYLINE
 8
Group#1
 66
     1
70
    8
 10
0.0
 20
 0.0
 30
0.0
  0
VERTEX
  8
MY3DLAYER
10
1.42919250729552
20
2.47942868491604
30
0.0
 70
     32
  0
VERTEX
  8
MY3DLAYER
10
1.4366418177298
20
2.48913681528416
30
0.0
 70
     32
  0
VERTEX
  8
MY3DLAYER
10
1.4366418177298
20
2.48913681528416
30
0.0416666666666667
 70
     32
  0
VERTEX
  8
MY3DLAYER
10
1.42919250729552
20
2.47942868491604
30
0.0416666666666667
 70
     32
  0
VERTEX
  8
MY3DLAYER
10
1.42919250729552
20
2.47942868491604
30
0.0
 70
     32
  0
SEQEND
  0
POLYLINE
 8
Group#1
 66
     1
70
    8
 10
0.0
 20
 0.0
 30
0.0
  0
VERTEX
  8
MY3DLAYER
10
1.42450967499062
20
2.46812332765522
30
0.0
 70
     32
  0
VERTEX
  8
MY3DLAYER
10
1.42919250729552
20
2.47942868491604
30
0.0
 70
     32
  0
VERTEX
  8
MY3DLAYER
10
1.42919250729552
20
2.47942868491604
30
0.0416666666666667
 70
     32
  0
VERTEX
  8
MY3DLAYER
10
1.42450967499062
20
2.46812332765522
30
0.0416666666666667
 70
     32
  0
VERTEX
  8
MY3DLAYER
10
1.42450967499062
20
2.46812332765522
30
0.0
 70
     32
  0
SEQEND
  0
POLYLINE
 8
Group#1
 66
     1
70
    8
 10
0.0
 20
 0.0
 30
0.0
  0
VERTEX
  8
MY3DLAYER
10
1.42291244809792
20
2.45599118491604
30
0.0
 70
     32
  0
VERTEX
  8
MY3DLAYER
10
1.42450967499062
20
2.46812332765522
30
0.0
 70
     32
  0
VERTEX
  8
MY3DLAYER
10
1.42450967499062
20
2.46812332765522
30
0.0416666666666667
 70
     32
  0
VERTEX
  8
MY3DLAYER
10
1.42291244809792
20
2.45599118491604
30
0.0416666666666667
 70
     32
  0
VERTEX
  8
MY3DLAYER
10
1.42291244809792
20
2.45599118491604
30
0.0
 70
     32
  0
SEQEND
  0
POLYLINE
 8
Group#1
 66
     1
70
    8
 10
0.0
 20
 0.0
 30
0.0
  0
VERTEX
  8
MY3DLAYER
10
1.42450967499062
20
2.44385904217686
30
0.0
 70
     32
  0
VERTEX
  8
MY3DLAYER
10
1.42291244809792
20
2.45599118491604
30
0.0
 70
     32
  0
VERTEX
  8
MY3DLAYER
10
1.42291244809792
20
2.45599118491604
30
0.0416666666666667
 70
     32
  0
VERTEX
  8
MY3DLAYER
10
1.42450967499062
20
2.44385904217686
30
0.0416666666666667
 70
     32
  0
VERTEX
  8
MY3DLAYER
10
1.42450967499062
20
2.44385904217686
30
0.0
 70
     32
  0
SEQEND
  0
POLYLINE
 8
Group#1
 66
     1
70
    8
 10
0.0
 20
 0.0
 30
0.0
  0
VERTEX
  8
MY3DLAYER
10
1.42919250729552
20
2.43255368491604
30
0.0
 70
     32
  0
VERTEX
  8
MY3DLAYER
10
1.42450967499062
20
2.44385904217686
30
0.0
 70
     32
  0
VERTEX
  8
MY3DLAYER
10
1.42450967499062
20
2.44385904217686
30
0.0416666666666667
 70
     32
  0
VERTEX
  8
MY3DLAYER
10
1.42919250729552
20
2.43255368491604
30
0.0416666666666667
 70
     32
  0
VERTEX
  8
MY3DLAYER
10
1.42919250729552
20
2.43255368491604
30
0.0
 70
     32
  0
SEQEND
  0
POLYLINE
 8
Group#1
 66
     1
70
    8
 10
0.0
 20
 0.0
 30
0.0
  0
VERTEX
  8
MY3DLAYER
10
1.4366418177298
20
2.42284555454792
30
0.0
 70
     32
  0
VERTEX
  8
MY3DLAYER
10
1.42919250729552
20
2.43255368491604
30
0.0
 70
     32
  0
VERTEX
  8
MY3DLAYER
10
1.42919250729552
20
2.43255368491604
30
0.0416666666666667
 70
     32
  0
VERTEX
  8
MY3DLAYER
10
1.4366418177298
20
2.42284555454792
30
0.0416666666666667
 70
     32
  0
VERTEX
  8
MY3DLAYER
10
1.4366418177298
20
2.42284555454792
30
0.0
 70
     32
  0
SEQEND
  0
POLYLINE
 8
Group#1
 66
     1
70
    8
 10
0.0
 20
 0.0
 30
0.0
  0
VERTEX
  8
MY3DLAYER
10
1.44634994809792
20
2.41539624411364
30
0.0
 70
     32
  0
VERTEX
  8
MY3DLAYER
10
1.4366418177298
20
2.42284555454792
30
0.0
 70
     32
  0
VERTEX
  8
MY3DLAYER
10
1.4366418177298
20
2.42284555454792
30
0.0416666666666667
 70
     32
  0
VERTEX
  8
MY3DLAYER
10
1.44634994809792
20
2.41539624411364
30
0.0416666666666667
 70
     32
  0
VERTEX
  8
MY3DLAYER
10
1.44634994809792
20
2.41539624411364
30
0.0
 70
     32
  0
SEQEND
  0
POLYLINE
 8
Group#1
 66
     1
70
    8
 10
0.0
 20
 0.0
 30
0.0
  0
VERTEX
  8
MY3DLAYER
10
1.45765530535874
20
2.41071341180874
30
0.0
 70
     32
  0
VERTEX
  8
MY3DLAYER
10
1.44634994809792
20
2.41539624411364
30
0.0
 70
     32
  0
VERTEX
  8
MY3DLAYER
10
1.44634994809792
20
2.41539624411364
30
0.0416666666666667
 70
     32
  0
VERTEX
  8
MY3DLAYER
10
1.45765530535874
20
2.41071341180874
30
0.0416666666666667
 70
     32
  0
VERTEX
  8
MY3DLAYER
10
1.45765530535874
20
2.41071341180874
30
0.0
 70
     32
  0
SEQEND
  0
POLYLINE
 8
Group#1
 66
     1
70
    8
 10
0.0
 20
 0.0
 30
0.0
  0
VERTEX
  8
MY3DLAYER
10
1.46978744809792
20
2.40911618491604
30
0.0
 70
     32
  0
VERTEX
  8
MY3DLAYER
10
1.45765530535874
20
2.41071341180874
30
0.0
 70
     32
  0
VERTEX
  8
MY3DLAYER
10
1.45765530535874
20
2.41071341180874
30
0.0416666666666667
 70
     32
  0
VERTEX
  8
MY3DLAYER
10
1.46978744809792
20
2.40911618491604
30
0.0416666666666667
 70
     32
  0
VERTEX
  8
MY3DLAYER
10
1.46978744809792
20
2.40911618491604
30
0.0
 70
     32
  0
SEQEND
  0
POLYLINE
 8
Group#1
 66
     1
70
    8
 10
0.0
 20
 0.0
 30
0.0
  0
VERTEX
  8
MY3DLAYER
10
1.4819195908371
20
2.41071341180874
30
0.0
 70
     32
  0
VERTEX
  8
MY3DLAYER
10
1.46978744809792
20
2.40911618491604
30
0.0
 70
     32
  0
VERTEX
  8
MY3DLAYER
10
1.46978744809792
20
2.40911618491604
30
0.0416666666666667
 70
     32
  0
VERTEX
  8
MY3DLAYER
10
1.4819195908371
20
2.41071341180874
30
0.0416666666666667
 70
     32
  0
VERTEX
  8
MY3DLAYER
10
1.4819195908371
20
2.41071341180874
30
0.0
 70
     32
  0
SEQEND
  0
POLYLINE
 8
Group#1
 66
     1
70
    8
 10
0.0
 20
 0.0
 30
0.0
  0
VERTEX
  8
MY3DLAYER
10
1.49322494809792
20
2.41539624411364
30
0.0
 70
     32
  0
VERTEX
  8
MY3DLAYER
10
1.4819195908371
20
2.41071341180874
30
0.0
 70
     32
  0
VERTEX
  8
MY3DLAYER
10
1.4819195908371
20
2.41071341180874
30
0.0416666666666667
 70
     32
  0
VERTEX
  8
MY3DLAYER
10
1.49322494809792
20
2.41539624411364
30
0.0416666666666667
 70
     32
  0
VERTEX
  8
MY3DLAYER
10
1.49322494809792
20
2.41539624411364
30
0.0
 70
     32
  0
SEQEND
  0
POLYLINE
 8
Group#1
 66
     1
70
    8
 10
0.0
 20
 0.0
 30
0.0
  0
VERTEX
  8
MY3DLAYER
10
1.50293307846604
20
2.42284555454792
30
0.0
 70
     32
  0
VERTEX
  8
MY3DLAYER
10
1.49322494809792
20
2.41539624411364
30
0.0
 70
     32
  0
VERTEX
  8
MY3DLAYER
10
1.49322494809792
20
2.41539624411364
30
0.0416666666666667
 70
     32
  0
VERTEX
  8
MY3DLAYER
10
1.50293307846604
20
2.42284555454792
30
0.0416666666666667
 70
     32
  0
VERTEX
  8
MY3DLAYER
10
1.50293307846604
20
2.42284555454792
30
0.0
 70
     32
  0
SEQEND
  0
POLYLINE
 8
Group#1
 66
     1
70
    8
 10
0.0
 20
 0.0
 30
0.0
  0
VERTEX
  8
MY3DLAYER
10
1.51038238890031
20
2.43255368491604
30
0.0
 70
     32
  0
VERTEX
  8
MY3DLAYER
10
1.50293307846604
20
2.42284555454792
30
0.0
 70
     32
  0
VERTEX
  8
MY3DLAYER
10
1.50293307846604
20
2.42284555454792
30
0.0416666666666667
 70
     32
  0
VERTEX
  8
MY3DLAYER
10
1.51038238890031
20
2.43255368491604
30
0.0416666666666667
 70
     32
  0
VERTEX
  8
MY3DLAYER
10
1.51038238890031
20
2.43255368491604
30
0.0
 70
     32
  0
SEQEND
  0
POLYLINE
 8
Group#1
 66
     1
70
    8
 10
0.0
 20
 0.0
 30
0.0
  0
VERTEX
  8
MY3DLAYER
10
1.51506522120522
20
2.44385904217686
30
0.0
 70
     32
  0
VERTEX
  8
MY3DLAYER
10
1.51038238890031
20
2.43255368491604
30
0.0
 70
     32
  0
VERTEX
  8
MY3DLAYER
10
1.51038238890031
20
2.43255368491604
30
0.0416666666666667
 70
     32
  0
VERTEX
  8
MY3DLAYER
10
1.51506522120522
20
2.44385904217686
30
0.0416666666666667
 70
     32
  0
VERTEX
  8
MY3DLAYER
10
1.51506522120522
20
2.44385904217686
30
0.0
 70
     32
  0
SEQEND
  0
POLYLINE
 8
Group#1
 66
     1
70
    8
 10
0.0
 20
 0.0
 30
0.0
  0
VERTEX
  8
MY3DLAYER
10
1.18173188787189
20
2.77719237551019
30
0.0
 70
     32
  0
VERTEX
  8
MY3DLAYER
10
1.17704905556698
20
2.76588701824937
30
0.0
 70
     32
  0
VERTEX
  8
MY3DLAYER
10
1.17704905556698
20
2.76588701824937
30
0.0416666666666667
 70
     32
  0
VERTEX
  8
MY3DLAYER
10
1.18173188787189
20
2.77719237551019
30
0.0416666666666667
 70
     32
  0
VERTEX
  8
MY3DLAYER
10
1.18173188787189
20
2.77719237551019
30
0.0
 70
     32
  0
SEQEND
  0
POLYLINE
 8
Group#1
 66
     1
70
    8
 10
0.0
 20
 0.0
 30
0.0
  0
VERTEX
  8
MY3DLAYER
10
1.18332911476459
20
2.78932451824937
30
0.0
 70
     32
  0
VERTEX
  8
MY3DLAYER
10
1.18173188787189
20
2.77719237551019
30
0.0
 70
     32
  0
VERTEX
  8
MY3DLAYER
10
1.18173188787189
20
2.77719237551019
30
0.0416666666666667
 70
     32
  0
VERTEX
  8
MY3DLAYER
10
1.18332911476459
20
2.78932451824937
30
0.0416666666666667
 70
     32
  0
VERTEX
  8
MY3DLAYER
10
1.18332911476459
20
2.78932451824937
30
0.0
 70
     32
  0
SEQEND
  0
POLYLINE
 8
Group#1
 66
     1
70
    8
 10
0.0
 20
 0.0
 30
0.0
  0
VERTEX
  8
MY3DLAYER
10
1.41555696252181
20
3.01060899503116
30
0.0
 70
     32
  0
VERTEX
  8
MY3DLAYER
10
1.42586192201552
20
2.97964731325676
30
0.0
 70
     32
  0
VERTEX
  8
MY3DLAYER
10
1.42586192201552
20
2.97964731325676
30
0.0416666666666667
 70
     32
  0
VERTEX
  8
MY3DLAYER
10
1.41555696252181
20
3.01060899503116
30
0.0416666666666667
 70
     32
  0
VERTEX
  8
MY3DLAYER
10
1.41555696252181
20
3.01060899503116
30
0.0
 70
     32
  0
SEQEND
  0
POLYLINE
 8
Group#1
 66
     1
70
    8
 10
0.0
 20
 0.0
 30
0.0
  0
VERTEX
  8
MY3DLAYER
10
1.16959974513271
20
2.75617888788125
30
0.0
 70
     32
  0
VERTEX
  8
MY3DLAYER
10
1.15989161476459
20
2.74872957744698
30
0.0
 70
     32
  0
VERTEX
  8
MY3DLAYER
10
1.15989161476459
20
2.74872957744698
30
0.0416666666666667
 70
     32
  0
VERTEX
  8
MY3DLAYER
10
1.16959974513271
20
2.75617888788125
30
0.0416666666666667
 70
     32
  0
VERTEX
  8
MY3DLAYER
10
1.16959974513271
20
2.75617888788125
30
0.0
 70
     32
  0
SEQEND
  0
POLYLINE
 8
Group#1
 66
     1
70
    8
 10
0.0
 20
 0.0
 30
0.0
  0
VERTEX
  8
MY3DLAYER
10
1.17704905556698
20
2.76588701824937
30
0.0
 70
     32
  0
VERTEX
  8
MY3DLAYER
10
1.16959974513271
20
2.75617888788125
30
0.0
 70
     32
  0
VERTEX
  8
MY3DLAYER
10
1.16959974513271
20
2.75617888788125
30
0.0416666666666667
 70
     32
  0
VERTEX
  8
MY3DLAYER
10
1.17704905556698
20
2.76588701824937
30
0.0416666666666667
 70
     32
  0
VERTEX
  8
MY3DLAYER
10
1.17704905556698
20
2.76588701824937
30
0.0
 70
     32
  0
SEQEND
  0
POLYLINE
 8
Group#1
 66
     1
70
    8
 10
0.0
 20
 0.0
 30
0.0
  0
VERTEX
  8
MY3DLAYER
10
1.45260014962749
20
2.83293486560282
30
0.0
 70
     32
  0
VERTEX
  8
MY3DLAYER
10
1.4644729810798
20
2.83589727922951
30
0.0
 70
     32
  0
VERTEX
  8
MY3DLAYER
10
1.4644729810798
20
2.83589727922951
30
0.0416666666666667
 70
     32
  0
VERTEX
  8
MY3DLAYER
10
1.45260014962749
20
2.83293486560282
30
0.0416666666666667
 70
     32
  0
VERTEX
  8
MY3DLAYER
10
1.45260014962749
20
2.83293486560282
30
0.0
 70
     32
  0
SEQEND
  0
POLYLINE
 8
Group#1
 66
     1
70
    8
 10
0.0
 20
 0.0
 30
0.0
  0
VERTEX
  8
MY3DLAYER
10
1.44189860416258
20
2.82700047887349
30
0.0
 70
     32
  0
VERTEX
  8
MY3DLAYER
10
1.45260014962749
20
2.83293486560282
30
0.0
 70
     32
  0
VERTEX
  8
MY3DLAYER
10
1.45260014962749
20
2.83293486560282
30
0.0416666666666667
 70
     32
  0
VERTEX
  8
MY3DLAYER
10
1.44189860416258
20
2.82700047887349
30
0.0416666666666667
 70
     32
  0
VERTEX
  8
MY3DLAYER
10
1.44189860416258
20
2.82700047887349
30
0.0
 70
     32
  0
SEQEND
  0
POLYLINE
 8
Group#1
 66
     1
70
    8
 10
0.0
 20
 0.0
 30
0.0
  0
VERTEX
  8
MY3DLAYER
10
1.09585917396219
20
2.81276201824937
30
0.0
 70
     32
  0
VERTEX
  8
MY3DLAYER
10
1.10330848439647
20
2.82247014861749
30
0.0
 70
     32
  0
VERTEX
  8
MY3DLAYER
10
1.10330848439647
20
2.82247014861749
30
0.0416666666666667
 70
     32
  0
VERTEX
  8
MY3DLAYER
10
1.09585917396219
20
2.81276201824937
30
0.0416666666666667
 70
     32
  0
VERTEX
  8
MY3DLAYER
10
1.09585917396219
20
2.81276201824937
30
0.0
 70
     32
  0
SEQEND
  0
POLYLINE
 8
Group#1
 66
     1
70
    8
 10
0.0
 20
 0.0
 30
0.0
  0
VERTEX
  8
MY3DLAYER
10
1.12908332941595
20
2.07636598244412
30
0.0
 70
     32
  0
VERTEX
  8
MY3DLAYER
10
1.11735326546985
20
2.07985103926014
30
0.0
 70
     32
  0
VERTEX
  8
MY3DLAYER
10
1.11735326546985
20
2.07985103926014
30
0.0416666666666667
 70
     32
  0
VERTEX
  8
MY3DLAYER
10
1.12908332941595
20
2.07636598244412
30
0.0416666666666667
 70
     32
  0
VERTEX
  8
MY3DLAYER
10
1.12908332941595
20
2.07636598244412
30
0.0
 70
     32
  0
SEQEND
  0
POLYLINE
 8
Group#1
 66
     1
70
    8
 10
0.0
 20
 0.0
 30
0.0
  0
VERTEX
  8
MY3DLAYER
10
1.14131570020277
20
2.07603564000896
30
0.0
 70
     32
  0
VERTEX
  8
MY3DLAYER
10
1.12908332941595
20
2.07636598244412
30
0.0
 70
     32
  0
VERTEX
  8
MY3DLAYER
10
1.12908332941595
20
2.07636598244412
30
0.0416666666666667
 70
     32
  0
VERTEX
  8
MY3DLAYER
10
1.14131570020277
20
2.07603564000896
30
0.0416666666666667
 70
     32
  0
VERTEX
  8
MY3DLAYER
10
1.14131570020277
20
2.07603564000896
30
0.0
 70
     32
  0
SEQEND
  0
POLYLINE
 8
Group#1
 66
     1
70
    8
 10
0.0
 20
 0.0
 30
0.0
  0
VERTEX
  8
MY3DLAYER
10
1.46978744809792
20
3.22383298617752
30
0.0
 70
     32
  0
VERTEX
  8
MY3DLAYER
10
1.38939379646543
20
3.25713312701239
30
0.0
 70
     32
  0
VERTEX
  8
MY3DLAYER
10
1.38939379646543
20
3.25713312701239
30
0.0416666666666667
 70
     32
  0
VERTEX
  8
MY3DLAYER
10
1.46978744809792
20
3.22383298617752
30
0.0416666666666667
 70
     32
  0
VERTEX
  8
MY3DLAYER
10
1.46978744809792
20
3.22383298617752
30
0.0
 70
     32
  0
SEQEND
  0
POLYLINE
 8
Group#1
 66
     1
70
    8
 10
0.0
 20
 0.0
 30
0.0
  0
VERTEX
  8
MY3DLAYER
10
1.53882304182677
20
3.17086011197822
30
0.0
 70
     32
  0
VERTEX
  8
MY3DLAYER
10
1.46978744809792
20
3.22383298617752
30
0.0
 70
     32
  0
VERTEX
  8
MY3DLAYER
10
1.46978744809792
20
3.22383298617752
30
0.0416666666666667
 70
     32
  0
VERTEX
  8
MY3DLAYER
10
1.53882304182677
20
3.17086011197822
30
0.0416666666666667
 70
     32
  0
VERTEX
  8
MY3DLAYER
10
1.53882304182677
20
3.17086011197822
30
0.0
 70
     32
  0
SEQEND
  0
POLYLINE
 8
Group#1
 66
     1
70
    8
 10
0.0
 20
 0.0
 30
0.0
  0
VERTEX
  8
MY3DLAYER
10
1.14858625750377
20
2.83460229135667
30
0.0
 70
     32
  0
VERTEX
  8
MY3DLAYER
10
1.15989161476459
20
2.82991945905177
30
0.0
 70
     32
  0
VERTEX
  8
MY3DLAYER
10
1.15989161476459
20
2.82991945905177
30
0.0416666666666667
 70
     32
  0
VERTEX
  8
MY3DLAYER
10
1.14858625750377
20
2.83460229135667
30
0.0416666666666667
 70
     32
  0
VERTEX
  8
MY3DLAYER
10
1.14858625750377
20
2.83460229135667
30
0.0
 70
     32
  0
SEQEND
  0
POLYLINE
 8
Group#1
 66
     1
70
    8
 10
0.0
 20
 0.0
 30
0.0
  0
VERTEX
  8
MY3DLAYER
10
1.13645411476459
20
2.83619951824937
30
0.0
 70
     32
  0
VERTEX
  8
MY3DLAYER
10
1.14858625750377
20
2.83460229135667
30
0.0
 70
     32
  0
VERTEX
  8
MY3DLAYER
10
1.14858625750377
20
2.83460229135667
30
0.0416666666666667
 70
     32
  0
VERTEX
  8
MY3DLAYER
10
1.13645411476459
20
2.83619951824937
30
0.0416666666666667
 70
     32
  0
VERTEX
  8
MY3DLAYER
10
1.13645411476459
20
2.83619951824937
30
0.0
 70
     32
  0
SEQEND
  0
POLYLINE
 8
Group#1
 66
     1
70
    8
 10
0.0
 20
 0.0
 30
0.0
  0
VERTEX
  8
MY3DLAYER
10
1.12432197202541
20
2.83460229135667
30
0.0
 70
     32
  0
VERTEX
  8
MY3DLAYER
10
1.13645411476459
20
2.83619951824937
30
0.0
 70
     32
  0
VERTEX
  8
MY3DLAYER
10
1.13645411476459
20
2.83619951824937
30
0.0416666666666667
 70
     32
  0
VERTEX
  8
MY3DLAYER
10
1.12432197202541
20
2.83460229135667
30
0.0416666666666667
 70
     32
  0
VERTEX
  8
MY3DLAYER
10
1.12432197202541
20
2.83460229135667
30
0.0
 70
     32
  0
SEQEND
  0
POLYLINE
 8
Group#1
 66
     1
70
    8
 10
0.0
 20
 0.0
 30
0.0
  0
VERTEX
  8
MY3DLAYER
10
1.11301661476459
20
2.82991945905177
30
0.0
 70
     32
  0
VERTEX
  8
MY3DLAYER
10
1.12432197202541
20
2.83460229135667
30
0.0
 70
     32
  0
VERTEX
  8
MY3DLAYER
10
1.12432197202541
20
2.83460229135667
30
0.0416666666666667
 70
     32
  0
VERTEX
  8
MY3DLAYER
10
1.11301661476459
20
2.82991945905177
30
0.0416666666666667
 70
     32
  0
VERTEX
  8
MY3DLAYER
10
1.11301661476459
20
2.82991945905177
30
0.0
 70
     32
  0
SEQEND
  0
POLYLINE
 8
Group#1
 66
     1
70
    8
 10
0.0
 20
 0.0
 30
0.0
  0
VERTEX
  8
MY3DLAYER
10
1.10330848439647
20
2.82247014861749
30
0.0
 70
     32
  0
VERTEX
  8
MY3DLAYER
10
1.11301661476459
20
2.82991945905177
30
0.0
 70
     32
  0
VERTEX
  8
MY3DLAYER
10
1.11301661476459
20
2.82991945905177
30
0.0416666666666667
 70
     32
  0
VERTEX
  8
MY3DLAYER
10
1.10330848439647
20
2.82247014861749
30
0.0416666666666667
 70
     32
  0
VERTEX
  8
MY3DLAYER
10
1.10330848439647
20
2.82247014861749
30
0.0
 70
     32
  0
SEQEND
  0
POLYLINE
 8
Group#1
 66
     1
70
    8
 10
0.0
 20
 0.0
 30
0.0
  0
VERTEX
  8
MY3DLAYER
10
1.18037964084698
20
2.93233505657532
30
0.0
 70
     32
  0
VERTEX
  8
MY3DLAYER
10
1.17843928724476
20
2.96490886440255
30
0.0
 70
     32
  0
VERTEX
  8
MY3DLAYER
10
1.17843928724476
20
2.96490886440255
30
0.0416666666666667
 70
     32
  0
VERTEX
  8
MY3DLAYER
10
1.18037964084698
20
2.93233505657532
30
0.0416666666666667
 70
     32
  0
VERTEX
  8
MY3DLAYER
10
1.18037964084698
20
2.93233505657532
30
0.0
 70
     32
  0
SEQEND
  0
POLYLINE
 8
Group#1
 66
     1
70
    8
 10
0.0
 20
 0.0
 30
0.0
  0
VERTEX
  8
MY3DLAYER
10
1.63645411476459
20
1.95599118491604
30
0.0
 70
     32
  0
VERTEX
  8
MY3DLAYER
10
1.63645411476459
20
2.93515785158271
30
0.0
 70
     32
  0
VERTEX
  8
MY3DLAYER
10
1.63645411476459
20
2.93515785158271
30
0.0416666666666667
 70
     32
  0
VERTEX
  8
MY3DLAYER
10
1.63645411476459
20
1.95599118491604
30
0.0416666666666667
 70
     32
  0
VERTEX
  8
MY3DLAYER
10
1.63645411476459
20
1.95599118491604
30
0.0
 70
     32
  0
SEQEND
  0
POLYLINE
 8
Group#1
 66
     1
70
    8
 10
0.0
 20
 0.0
 30
0.0
  0
VERTEX
  8
MY3DLAYER
10
1.38939379646543
20
3.25713312701239
30
0.0
 70
     32
  0
VERTEX
  8
MY3DLAYER
10
1.30312078143125
20
3.26849118491604
30
0.0
 70
     32
  0
VERTEX
  8
MY3DLAYER
10
1.30312078143125
20
3.26849118491604
30
0.0416666666666667
 70
     32
  0
VERTEX
  8
MY3DLAYER
10
1.38939379646543
20
3.25713312701239
30
0.0416666666666667
 70
     32
  0
VERTEX
  8
MY3DLAYER
10
1.38939379646543
20
3.25713312701239
30
0.0
 70
     32
  0
SEQEND
  0
POLYLINE
 8
Group#1
 66
     1
70
    8
 10
0.0
 20
 0.0
 30
0.0
  0
VERTEX
  8
MY3DLAYER
10
1.30312078143125
20
3.26849118491604
30
0.0
 70
     32
  0
VERTEX
  8
MY3DLAYER
10
1.21684776639708
20
3.25713312701239
30
0.0
 70
     32
  0
VERTEX
  8
MY3DLAYER
10
1.21684776639708
20
3.25713312701239
30
0.0416666666666667
 70
     32
  0
VERTEX
  8
MY3DLAYER
10
1.30312078143125
20
3.26849118491604
30
0.0416666666666667
 70
     32
  0
VERTEX
  8
MY3DLAYER
10
1.30312078143125
20
3.26849118491604
30
0.0
 70
     32
  0
SEQEND
  0
POLYLINE
 8
Group#1
 66
     1
70
    8
 10
0.0
 20
 0.0
 30
0.0
  0
VERTEX
  8
MY3DLAYER
10
1.15989161476459
20
2.82991945905177
30
0.0
 70
     32
  0
VERTEX
  8
MY3DLAYER
10
1.16959974513271
20
2.82247014861749
30
0.0
 70
     32
  0
VERTEX
  8
MY3DLAYER
10
1.16959974513271
20
2.82247014861749
30
0.0416666666666667
 70
     32
  0
VERTEX
  8
MY3DLAYER
10
1.15989161476459
20
2.82991945905177
30
0.0416666666666667
 70
     32
  0
VERTEX
  8
MY3DLAYER
10
1.15989161476459
20
2.82991945905177
30
0.0
 70
     32
  0
SEQEND
  0
POLYLINE
 8
Group#1
 66
     1
70
    8
 10
0.0
 20
 0.0
 30
0.0
  0
VERTEX
  8
MY3DLAYER
10
1.47670798467682
20
2.83568583616054
30
0.0
 70
     32
  0
VERTEX
  8
MY3DLAYER
10
1.48847136514272
20
2.83231494589162
30
0.0
 70
     32
  0
VERTEX
  8
MY3DLAYER
10
1.48847136514272
20
2.83231494589162
30
0.0416666666666667
 70
     32
  0
VERTEX
  8
MY3DLAYER
10
1.47670798467682
20
2.83568583616054
30
0.0416666666666667
 70
     32
  0
VERTEX
  8
MY3DLAYER
10
1.47670798467682
20
2.83568583616054
30
0.0
 70
     32
  0
SEQEND
  0
POLYLINE
 8
Group#1
 66
     1
70
    8
 10
0.0
 20
 0.0
 30
0.0
  0
VERTEX
  8
MY3DLAYER
10
1.4644729810798
20
2.83589727922951
30
0.0
 70
     32
  0
VERTEX
  8
MY3DLAYER
10
1.47670798467682
20
2.83568583616054
30
0.0
 70
     32
  0
VERTEX
  8
MY3DLAYER
10
1.47670798467682
20
2.83568583616054
30
0.0416666666666667
 70
     32
  0
VERTEX
  8
MY3DLAYER
10
1.4644729810798
20
2.83589727922951
30
0.0416666666666667
 70
     32
  0
VERTEX
  8
MY3DLAYER
10
1.4644729810798
20
2.83589727922951
30
0.0
 70
     32
  0
SEQEND
  0
POLYLINE
 8
Group#1
 66
     1
70
    8
 10
0.0
 20
 0.0
 30
0.0
  0
VERTEX
  8
MY3DLAYER
10
1.21684776639708
20
3.25713312701239
30
0.0
 70
     32
  0
VERTEX
  8
MY3DLAYER
10
1.13645411476459
20
3.22383298617752
30
0.0
 70
     32
  0
VERTEX
  8
MY3DLAYER
10
1.13645411476459
20
3.22383298617752
30
0.0416666666666667
 70
     32
  0
VERTEX
  8
MY3DLAYER
10
1.21684776639708
20
3.25713312701239
30
0.0416666666666667
 70
     32
  0
VERTEX
  8
MY3DLAYER
10
1.21684776639708
20
3.25713312701239
30
0.0
 70
     32
  0
SEQEND
  0
POLYLINE
 8
Group#1
 66
     1
70
    8
 10
0.0
 20
 0.0
 30
0.0
  0
VERTEX
  8
MY3DLAYER
10
1.09117634165729
20
2.80145666098855
30
0.0
 70
     32
  0
VERTEX
  8
MY3DLAYER
10
1.09585917396219
20
2.81276201824937
30
0.0
 70
     32
  0
VERTEX
  8
MY3DLAYER
10
1.09585917396219
20
2.81276201824937
30
0.0416666666666667
 70
     32
  0
VERTEX
  8
MY3DLAYER
10
1.09117634165729
20
2.80145666098855
30
0.0416666666666667
 70
     32
  0
VERTEX
  8
MY3DLAYER
10
1.09117634165729
20
2.80145666098855
30
0.0
 70
     32
  0
SEQEND
  0
POLYLINE
 8
Group#1
 66
     1
70
    8
 10
0.0
 20
 0.0
 30
0.0
  0
VERTEX
  8
MY3DLAYER
10
1.08957911476459
20
2.78932451824937
30
0.0
 70
     32
  0
VERTEX
  8
MY3DLAYER
10
1.09117634165729
20
2.80145666098855
30
0.0
 70
     32
  0
VERTEX
  8
MY3DLAYER
10
1.09117634165729
20
2.80145666098855
30
0.0416666666666667
 70
     32
  0
VERTEX
  8
MY3DLAYER
10
1.08957911476459
20
2.78932451824937
30
0.0416666666666667
 70
     32
  0
VERTEX
  8
MY3DLAYER
10
1.08957911476459
20
2.78932451824937
30
0.0
 70
     32
  0
SEQEND
  0
POLYLINE
 8
Group#1
 66
     1
70
    8
 10
0.0
 20
 0.0
 30
0.0
  0
VERTEX
  8
MY3DLAYER
10
1.09117634165729
20
2.77719237551019
30
0.0
 70
     32
  0
VERTEX
  8
MY3DLAYER
10
1.08957911476459
20
2.78932451824937
30
0.0
 70
     32
  0
VERTEX
  8
MY3DLAYER
10
1.08957911476459
20
2.78932451824937
30
0.0416666666666667
 70
     32
  0
VERTEX
  8
MY3DLAYER
10
1.09117634165729
20
2.77719237551019
30
0.0416666666666667
 70
     32
  0
VERTEX
  8
MY3DLAYER
10
1.09117634165729
20
2.77719237551019
30
0.0
 70
     32
  0
SEQEND
  0
POLYLINE
 8
Group#1
 66
     1
70
    8
 10
0.0
 20
 0.0
 30
0.0
  0
VERTEX
  8
MY3DLAYER
10
1.09585917396219
20
2.76588701824937
30
0.0
 70
     32
  0
VERTEX
  8
MY3DLAYER
10
1.09117634165729
20
2.77719237551019
30
0.0
 70
     32
  0
VERTEX
  8
MY3DLAYER
10
1.09117634165729
20
2.77719237551019
30
0.0416666666666667
 70
     32
  0
VERTEX
  8
MY3DLAYER
10
1.09585917396219
20
2.76588701824937
30
0.0416666666666667
 70
     32
  0
VERTEX
  8
MY3DLAYER
10
1.09585917396219
20
2.76588701824937
30
0.0
 70
     32
  0
SEQEND
  0
POLYLINE
 8
Group#1
 66
     1
70
    8
 10
0.0
 20
 0.0
 30
0.0
  0
VERTEX
  8
MY3DLAYER
10
1.10330848439647
20
2.75617888788125
30
0.0
 70
     32
  0
VERTEX
  8
MY3DLAYER
10
1.09585917396219
20
2.76588701824937
30
0.0
 70
     32
  0
VERTEX
  8
MY3DLAYER
10
1.09585917396219
20
2.76588701824937
30
0.0416666666666667
 70
     32
  0
VERTEX
  8
MY3DLAYER
10
1.10330848439647
20
2.75617888788125
30
0.0416666666666667
 70
     32
  0
VERTEX
  8
MY3DLAYER
10
1.10330848439647
20
2.75617888788125
30
0.0
 70
     32
  0
SEQEND
  0
POLYLINE
 8
Group#1
 66
     1
70
    8
 10
0.0
 20
 0.0
 30
0.0
  0
VERTEX
  8
MY3DLAYER
10
1.39758966309635
20
3.03784856330642
30
0.0
 70
     32
  0
VERTEX
  8
MY3DLAYER
10
1.41555696252181
20
3.01060899503116
30
0.0
 70
     32
  0
VERTEX
  8
MY3DLAYER
10
1.41555696252181
20
3.01060899503116
30
0.0416666666666667
 70
     32
  0
VERTEX
  8
MY3DLAYER
10
1.39758966309635
20
3.03784856330642
30
0.0416666666666667
 70
     32
  0
VERTEX
  8
MY3DLAYER
10
1.39758966309635
20
3.03784856330642
30
0.0
 70
     32
  0
SEQEND
  0
POLYLINE
 8
Group#1
 66
     1
70
    8
 10
0.0
 20
 0.0
 30
0.0
  0
VERTEX
  8
MY3DLAYER
10
1.37318446550262
20
3.05950968652009
30
0.0
 70
     32
  0
VERTEX
  8
MY3DLAYER
10
1.39758966309635
20
3.03784856330642
30
0.0
 70
     32
  0
VERTEX
  8
MY3DLAYER
10
1.39758966309635
20
3.03784856330642
30
0.0416666666666667
 70
     32
  0
VERTEX
  8
MY3DLAYER
10
1.37318446550262
20
3.05950968652009
30
0.0416666666666667
 70
     32
  0
VERTEX
  8
MY3DLAYER
10
1.37318446550262
20
3.05950968652009
30
0.0
 70
     32
  0
SEQEND
  0
POLYLINE
 8
Group#1
 66
     1
70
    8
 10
0.0
 20
 0.0
 30
0.0
  0
VERTEX
  8
MY3DLAYER
10
1.63645411476459
20
2.93515785158271
30
0.0416666666666667
 70
     32
  0
VERTEX
  8
MY3DLAYER
10
1.62509605686094
20
3.02143086661688
30
0.0416666666666667
 70
     32
  0
VERTEX
  8
MY3DLAYER
10
1.59179591602607
20
3.10182451824937
30
0.0416666666666667
 70
     32
  0
VERTEX
  8
MY3DLAYER
10
1.53882304182677
20
3.17086011197822
30
0.0416666666666667
 70
     32
  0
VERTEX
  8
MY3DLAYER
10
1.46978744809792
20
3.22383298617752
30
0.0416666666666667
 70
     32
  0
VERTEX
  8
MY3DLAYER
10
1.38939379646543
20
3.25713312701239
30
0.0416666666666667
 70
     32
  0
VERTEX
  8
MY3DLAYER
10
1.30312078143125
20
3.26849118491604
30
0.0416666666666667
 70
     32
  0
VERTEX
  8
MY3DLAYER
10
1.21684776639708
20
3.25713312701239
30
0.0416666666666667
 70
     32
  0
VERTEX
  8
MY3DLAYER
10
1.13645411476459
20
3.22383298617752
30
0.0416666666666667
 70
     32
  0
VERTEX
  8
MY3DLAYER
10
1.06741852103574
20
3.17086011197822
30
0.0416666666666667
 70
     32
  0
VERTEX
  8
MY3DLAYER
10
1.01444564683644
20
3.10182451824937
30
0.0416666666666667
 70
     32
  0
VERTEX
  8
MY3DLAYER
10
0.981145506001563
20
3.02143086661688
30
0.0416666666666667
 70
     32
  0
VERTEX
  8
MY3DLAYER
10
0.96978744809792
20
2.93515785158271
30
0.0416666666666667
 70
     32
  0
VERTEX
  8
MY3DLAYER
10
0.96978744809792
20
1.95599118491604
30
0.0416666666666667
 70
     32
  0
VERTEX
  8
MY3DLAYER
10
1.63645411476459
20
1.95599118491604
30
0.0416666666666667
 70
     32
  0
VERTEX
  8
MY3DLAYER
10
1.63645411476459
20
2.93515785158271
30
0.0416666666666667
 70
     32
  0
SEQEND
  0
POLYLINE
 8
Group#1
 66
     1
70
    8
 10
0.0
 20
 0.0
 30
0.0
  0
VERTEX
  8
MY3DLAYER
10
1.42586192201552
20
2.97964731325676
30
0.0416666666666667
 70
     32
  0
VERTEX
  8
MY3DLAYER
10
1.42780227561774
20
2.94707350542953
30
0.0416666666666667
 70
     32
  0
VERTEX
  8
MY3DLAYER
10
1.42124579143707
20
2.91510742272215
30
0.0416666666666667
 70
     32
  0
VERTEX
  8
MY3DLAYER
10
1.4066392830353
20
2.88592750084467
30
0.0416666666666667
 70
     32
  0
VERTEX
  8
MY3DLAYER
10
1.38497815982163
20
2.86152230325094
30
0.0416666666666667
 70
     32
  0
VERTEX
  8
MY3DLAYER
10
1.35773859154637
20
2.84355500382548
30
0.0416666666666667
 70
     32
  0
VERTEX
  8
MY3DLAYER
10
1.32677690977197
20
2.83325004433177
30
0.0416666666666667
 70
     32
  0
VERTEX
  8
MY3DLAYER
10
1.29420310194474
20
2.83130969072955
30
0.0416666666666667
 70
     32
  0
VERTEX
  8
MY3DLAYER
10
1.26223701923736
20
2.83786617491022
30
0.0416666666666667
 70
     32
  0
VERTEX
  8
MY3DLAYER
10
1.23305709735988
20
2.85247268331199
30
0.0416666666666667
 70
     32
  0
VERTEX
  8
MY3DLAYER
10
1.20865189976616
20
2.87413380652566
30
0.0416666666666667
 70
     32
  0
VERTEX
  8
MY3DLAYER
10
1.1906846003407
20
2.90137337480092
30
0.0416666666666667
 70
     32
  0
VERTEX
  8
MY3DLAYER
10
1.18037964084698
20
2.93233505657532
30
0.0416666666666667
 70
     32
  0
VERTEX
  8
MY3DLAYER
10
1.17843928724476
20
2.96490886440255
30
0.0416666666666667
 70
     32
  0
VERTEX
  8
MY3DLAYER
10
1.18499577142544
20
2.99687494710993
30
0.0416666666666667
 70
     32
  0
VERTEX
  8
MY3DLAYER
10
1.1996022798272
20
3.02605486898741
30
0.0416666666666667
 70
     32
  0
VERTEX
  8
MY3DLAYER
10
1.22126340304087
20
3.05046006658113
30
0.0416666666666667
 70
     32
  0
VERTEX
  8
MY3DLAYER
10
1.24850297131613
20
3.0684273660066
30
0.0416666666666667
 70
     32
  0
VERTEX
  8
MY3DLAYER
10
1.27946465309054
20
3.07873232550031
30
0.0416666666666667
 70
     32
  0
VERTEX
  8
MY3DLAYER
10
1.31203846091776
20
3.08067267910253
30
0.0416666666666667
 70
     32
  0
VERTEX
  8
MY3DLAYER
10
1.34400454362514
20
3.07411619492185
30
0.0416666666666667
 70
     32
  0
VERTEX
  8
MY3DLAYER
10
1.37318446550262
20
3.05950968652009
30
0.0416666666666667
 70
     32
  0
VERTEX
  8
MY3DLAYER
10
1.39758966309635
20
3.03784856330642
30
0.0416666666666667
 70
     32
  0
VERTEX
  8
MY3DLAYER
10
1.41555696252181
20
3.01060899503116
30
0.0416666666666667
 70
     32
  0
VERTEX
  8
MY3DLAYER
10
1.42586192201552
20
2.97964731325676
30
0.0416666666666667
 70
     32
  0
SEQEND
  0
POLYLINE
 8
Group#1
 66
     1
70
    8
 10
0.0
 20
 0.0
 30
0.0
  0
VERTEX
  8
MY3DLAYER
10
1.18173188787189
20
2.80145666098855
30
0.0416666666666667
 70
     32
  0
VERTEX
  8
MY3DLAYER
10
1.18332911476459
20
2.78932451824937
30
0.0416666666666667
 70
     32
  0
VERTEX
  8
MY3DLAYER
10
1.18173188787189
20
2.77719237551019
30
0.0416666666666667
 70
     32
  0
VERTEX
  8
MY3DLAYER
10
1.17704905556698
20
2.76588701824937
30
0.0416666666666667
 70
     32
  0
VERTEX
  8
MY3DLAYER
10
1.16959974513271
20
2.75617888788125
30
0.0416666666666667
 70
     32
  0
VERTEX
  8
MY3DLAYER
10
1.15989161476459
20
2.74872957744698
30
0.0416666666666667
 70
     32
  0
VERTEX
  8
MY3DLAYER
10
1.14858625750377
20
2.74404674514207
30
0.0416666666666667
 70
     32
  0
VERTEX
  8
MY3DLAYER
10
1.13645411476459
20
2.74244951824937
30
0.0416666666666667
 70
     32
  0
VERTEX
  8
MY3DLAYER
10
1.12432197202541
20
2.74404674514207
30
0.0416666666666667
 70
     32
  0
VERTEX
  8
MY3DLAYER
10
1.11301661476459
20
2.74872957744698
30
0.0416666666666667
 70
     32
  0
VERTEX
  8
MY3DLAYER
10
1.10330848439647
20
2.75617888788125
30
0.0416666666666667
 70
     32
  0
VERTEX
  8
MY3DLAYER
10
1.09585917396219
20
2.76588701824937
30
0.0416666666666667
 70
     32
  0
VERTEX
  8
MY3DLAYER
10
1.09117634165729
20
2.77719237551019
30
0.0416666666666667
 70
     32
  0
VERTEX
  8
MY3DLAYER
10
1.08957911476459
20
2.78932451824937
30
0.0416666666666667
 70
     32
  0
VERTEX
  8
MY3DLAYER
10
1.09117634165729
20
2.80145666098855
30
0.0416666666666667
 70
     32
  0
VERTEX
  8
MY3DLAYER
10
1.09585917396219
20
2.81276201824937
30
0.0416666666666667
 70
     32
  0
VERTEX
  8
MY3DLAYER
10
1.10330848439647
20
2.82247014861749
30
0.0416666666666667
 70
     32
  0
VERTEX
  8
MY3DLAYER
10
1.11301661476459
20
2.82991945905177
30
0.0416666666666667
 70
     32
  0
VERTEX
  8
MY3DLAYER
10
1.12432197202541
20
2.83460229135667
30
0.0416666666666667
 70
     32
  0
VERTEX
  8
MY3DLAYER
10
1.13645411476459
20
2.83619951824937
30
0.0416666666666667
 70
     32
  0
VERTEX
  8
MY3DLAYER
10
1.14858625750377
20
2.83460229135667
30
0.0416666666666667
 70
     32
  0
VERTEX
  8
MY3DLAYER
10
1.15989161476459
20
2.82991945905177
30
0.0416666666666667
 70
     32
  0
VERTEX
  8
MY3DLAYER
10
1.16959974513271
20
2.82247014861749
30
0.0416666666666667
 70
     32
  0
VERTEX
  8
MY3DLAYER
10
1.17704905556698
20
2.81276201824937
30
0.0416666666666667
 70
     32
  0
VERTEX
  8
MY3DLAYER
10
1.18173188787189
20
2.80145666098855
30
0.0416666666666667
 70
     32
  0
SEQEND
  0
POLYLINE
 8
Group#1
 66
     1
70
    8
 10
0.0
 20
 0.0
 30
0.0
  0
VERTEX
  8
MY3DLAYER
10
1.48697474656835
20
2.74571417089593
30
0.0416666666666667
 70
     32
  0
VERTEX
  8
MY3DLAYER
10
1.47510191511604
20
2.74275175726923
30
0.0416666666666667
 70
     32
  0
VERTEX
  8
MY3DLAYER
10
1.46286691151902
20
2.74296320033821
30
0.0416666666666667
 70
     32
  0
VERTEX
  8
MY3DLAYER
10
1.45110353105312
20
2.74633409060713
30
0.0416666666666667
 70
     32
  0
VERTEX
  8
MY3DLAYER
10
1.44061342865719
20
2.75263470747483
30
0.0416666666666667
 70
     32
  0
VERTEX
  8
MY3DLAYER
10
1.4321114874738
20
2.76143567431403
30
0.0416666666666667
 70
     32
  0
VERTEX
  8
MY3DLAYER
10
1.42617710074447
20
2.77213721977894
30
0.0416666666666667
 70
     32
  0
VERTEX
  8
MY3DLAYER
10
1.42321468711778
20
2.78401005123125
30
0.0416666666666667
 70
     32
  0
VERTEX
  8
MY3DLAYER
10
1.42342613018675
20
2.79624505482827
30
0.0416666666666667
 70
     32
  0
VERTEX
  8
MY3DLAYER
10
1.42679702045568
20
2.80800843529417
30
0.0416666666666667
 70
     32
  0
VERTEX
  8
MY3DLAYER
10
1.43309763732337
20
2.8184985376901
30
0.0416666666666667
 70
     32
  0
VERTEX
  8
MY3DLAYER
10
1.44189860416258
20
2.82700047887349
30
0.0416666666666667
 70
     32
  0
VERTEX
  8
MY3DLAYER
10
1.45260014962749
20
2.83293486560282
30
0.0416666666666667
 70
     32
  0
VERTEX
  8
MY3DLAYER
10
1.4644729810798
20
2.83589727922951
30
0.0416666666666667
 70
     32
  0
VERTEX
  8
MY3DLAYER
10
1.47670798467682
20
2.83568583616054
30
0.0416666666666667
 70
     32
  0
VERTEX
  8
MY3DLAYER
10
1.48847136514272
20
2.83231494589162
30
0.0416666666666667
 70
     32
  0
VERTEX
  8
MY3DLAYER
10
1.49896146753865
20
2.82601432902392
30
0.0416666666666667
 70
     32
  0
VERTEX
  8
MY3DLAYER
10
1.50746340872204
20
2.81721336218471
30
0.0416666666666667
 70
     32
  0
VERTEX
  8
MY3DLAYER
10
1.51339779545137
20
2.80651181671981
30
0.0416666666666667
 70
     32
  0
VERTEX
  8
MY3DLAYER
10
1.51636020907806
20
2.79463898526749
30
0.0416666666666667
 70
     32
  0
VERTEX
  8
MY3DLAYER
10
1.51614876600908
20
2.78240398167047
30
0.0416666666666667
 70
     32
  0
VERTEX
  8
MY3DLAYER
10
1.51277787574016
20
2.77064060120457
30
0.0416666666666667
 70
     32
  0
VERTEX
  8
MY3DLAYER
10
1.50647725887246
20
2.76015049880864
30
0.0416666666666667
 70
     32
  0
VERTEX
  8
MY3DLAYER
10
1.49767629203326
20
2.75164855762525
30
0.0416666666666667
 70
     32
  0
VERTEX
  8
MY3DLAYER
10
1.48697474656835
20
2.74571417089593
30
0.0416666666666667
 70
     32
  0
SEQEND
  0
POLYLINE
 8
Group#1
 66
     1
70
    8
 10
0.0
 20
 0.0
 30
0.0
  0
VERTEX
  8
MY3DLAYER
10
1.17926092708715
20
2.10355700228797
30
0.0416666666666667
 70
     32
  0
VERTEX
  8
MY3DLAYER
10
1.17285865675295
20
2.09312862965565
30
0.0416666666666667
 70
     32
  0
VERTEX
  8
MY3DLAYER
10
1.16397547704359
20
2.08471262469832
30
0.0416666666666667
 70
     32
  0
VERTEX
  8
MY3DLAYER
10
1.15321676197612
20
2.0788825242457
30
0.0416666666666667
 70
     32
  0
VERTEX
  8
MY3DLAYER
10
1.14131570020277
20
2.07603564000896
30
0.0416666666666667
 70
     32
  0
VERTEX
  8
MY3DLAYER
10
1.12908332941595
20
2.07636598244412
30
0.0416666666666667
 70
     32
  0
VERTEX
  8
MY3DLAYER
10
1.11735326546985
20
2.07985103926014
30
0.0416666666666667
 70
     32
  0
VERTEX
  8
MY3DLAYER
10
1.10692489283753
20
2.08625330959434
30
0.0416666666666667
 70
     32
  0
VERTEX
  8
MY3DLAYER
10
1.0985088878802
20
2.0951364893037
30
0.0416666666666667
 70
     32
  0
VERTEX
  8
MY3DLAYER
10
1.09267878742758
20
2.10589520437117
30
0.0416666666666667
 70
     32
  0
VERTEX
  8
MY3DLAYER
10
1.08983190319084
20
2.11779626614452
30
0.0416666666666667
 70
     32
  0
VERTEX
  8
MY3DLAYER
10
1.090162245626
20
2.13002863693134
30
0.0416666666666667
 70
     32
  0
VERTEX
  8
MY3DLAYER
10
1.09364730244202
20
2.14175870087744
30
0.0416666666666667
 70
     32
  0
VERTEX
  8
MY3DLAYER
10
1.10004957277622
20
2.15218707350976
30
0.0416666666666667
 70
     32
  0
VERTEX
  8
MY3DLAYER
10
1.10893275248558
20
2.16060307846709
30
0.0416666666666667
 70
     32
  0
VERTEX
  8
MY3DLAYER
10
1.11969146755305
20
2.16643317891971
30
0.0416666666666667
 70
     32
  0
VERTEX
  8
MY3DLAYER
10
1.1315925293264
20
2.16928006315645
30
0.0416666666666667
 70
     32
  0
VERTEX
  8
MY3DLAYER
10
1.14382490011322
20
2.1689497207213
30
0.0416666666666667
 70
     32
  0
VERTEX
  8
MY3DLAYER
10
1.15555496405933
20
2.16546466390527
30
0.0416666666666667
 70
     32
  0
VERTEX
  8
MY3DLAYER
10
1.16598333669164
20
2.15906239357107
30
0.0416666666666667
 70
     32
  0
VERTEX
  8
MY3DLAYER
10
1.17439934164897
20
2.15017921386171
30
0.0416666666666667
 70
     32
  0
VERTEX
  8
MY3DLAYER
10
1.18022944210159
20
2.13942049879424
30
0.0416666666666667
 70
     32
  0
VERTEX
  8
MY3DLAYER
10
1.18307632633833
20
2.12751943702089
30
0.0416666666666667
 70
     32
  0
VERTEX
  8
MY3DLAYER
10
1.18274598390318
20
2.11528706623407
30
0.0416666666666667
 70
     32
  0
VERTEX
  8
MY3DLAYER
10
1.17926092708715
20
2.10355700228797
30
0.0416666666666667
 70
     32
  0
SEQEND
  0
POLYLINE
 8
Group#1
 66
     1
70
    8
 10
0.0
 20
 0.0
 30
0.0
  0
VERTEX
  8
MY3DLAYER
10
1.51129193537904
20
2.10087154486194
30
0.0416666666666667
 70
     32
  0
VERTEX
  8
MY3DLAYER
10
1.50423899316786
20
2.09087174349609
30
0.0416666666666667
 70
     32
  0
VERTEX
  8
MY3DLAYER
10
1.49483823509403
20
2.08303811286732
30
0.0416666666666667
 70
     32
  0
VERTEX
  8
MY3DLAYER
10
1.48373030728481
20
2.07790450195729
30
0.0416666666666667
 70
     32
  0
VERTEX
  8
MY3DLAYER
10
1.47167219666366
20
2.07582075786582
30
0.0416666666666667
 70
     32
  0
VERTEX
  8
MY3DLAYER
10
1.45948564354244
20
2.07692888430921
30
0.0416666666666667
 70
     32
  0
VERTEX
  8
MY3DLAYER
10
1.44800114137715
20
2.08115336430158
30
0.0416666666666667
 70
     32
  0
VERTEX
  8
MY3DLAYER
10
1.43800134001131
20
2.08820630651276
30
0.0416666666666667
 70
     32
  0
VERTEX
  8
MY3DLAYER
10
1.43016770938254
20
2.09760706458659
30
0.0416666666666667
 70
     32
  0
VERTEX
  8
MY3DLAYER
10
1.4250340984725
20
2.10871499239582
30
0.0416666666666667
 70
     32
  0
VERTEX
  8
MY3DLAYER
10
1.42295035438104
20
2.12077310301697
30
0.0416666666666667
 70
     32
  0
VERTEX
  8
MY3DLAYER
10
1.42405848082442
20
2.13295965613818
30
0.0416666666666667
 70
     32
  0
VERTEX
  8
MY3DLAYER
10
1.4282829608168
20
2.14444415830347
30
0.0416666666666667
 70
     32
  0
VERTEX
  8
MY3DLAYER
10
1.43533590302798
20
2.15444395966932
30
0.0416666666666667
 70
     32
  0
VERTEX
  8
MY3DLAYER
10
1.4447366611018
20
2.16227759029809
30
0.0416666666666667
 70
     32
  0
VERTEX
  8
MY3DLAYER
10
1.45584458891103
20
2.16741120120812
30
0.0416666666666667
 70
     32
  0
VERTEX
  8
MY3DLAYER
10
1.46790269953218
20
2.16949494529959
30
0.0416666666666667
 70
     32
  0
VERTEX
  8
MY3DLAYER
10
1.48008925265339
20
2.1683868188562
30
0.0416666666666667
 70
     32
  0
VERTEX
  8
MY3DLAYER
10
1.49157375481869
20
2.16416233886383
30
0.0416666666666667
 70
     32
  0
VERTEX
  8
MY3DLAYER
10
1.50157355618453
20
2.15710939665265
30
0.0416666666666667
 70
     32
  0
VERTEX
  8
MY3DLAYER
10
1.5094071868133
20
2.14770863857882
30
0.0416666666666667
 70
     32
  0
VERTEX
  8
MY3DLAYER
10
1.51454079772333
20
2.13660071076959
30
0.0416666666666667
 70
     32
  0
VERTEX
  8
MY3DLAYER
10
1.5166245418148
20
2.12454260014844
30
0.0416666666666667
 70
     32
  0
VERTEX
  8
MY3DLAYER
10
1.51551641537142
20
2.11235604702723
30
0.0416666666666667
 70
     32
  0
VERTEX
  8
MY3DLAYER
10
1.51129193537904
20
2.10087154486194
30
0.0416666666666667
 70
     32
  0
SEQEND
  0
POLYLINE
 8
Group#1
 66
     1
70
    8
 10
0.0
 20
 0.0
 30
0.0
  0
VERTEX
  8
MY3DLAYER
10
1.11904089306948
20
2.49951181606033
30
0.0416666666666667
 70
     32
  0
VERTEX
  8
MY3DLAYER
10
1.13089820240541
20
2.50253575992599
30
0.0416666666666667
 70
     32
  0
VERTEX
  8
MY3DLAYER
10
1.14313413798704
20
2.50238776792328
30
0.0416666666666667
 70
     32
  0
VERTEX
  8
MY3DLAYER
10
1.15491484102532
20
2.4990779254626
30
0.0416666666666667
 70
     32
  0
VERTEX
  8
MY3DLAYER
10
1.16543747607672
20
2.49283179283787
30
0.0416666666666667
 70
     32
  0
VERTEX
  8
MY3DLAYER
10
1.17398494295197
20
2.48407503366526
30
0.0416666666666667
 70
     32
  0
VERTEX
  8
MY3DLAYER
10
1.17997474590887
20
2.47340440661114
30
0.0416666666666667
 70
     32
  0
VERTEX
  8
MY3DLAYER
10
1.18299868977454
20
2.46154709727521
30
0.0416666666666667
 70
     32
  0
VERTEX
  8
MY3DLAYER
10
1.18285069777182
20
2.44931116169358
30
0.0416666666666667
 70
     32
  0
VERTEX
  8
MY3DLAYER
10
1.17954085531114
20
2.43753045865531
30
0.0416666666666667
 70
     32
  0
VERTEX
  8
MY3DLAYER
10
1.17329472268642
20
2.4270078236039
30
0.0416666666666667
 70
     32
  0
VERTEX
  8
MY3DLAYER
10
1.16453796351381
20
2.41846035672866
30
0.0416666666666667
 70
     32
  0
VERTEX
  8
MY3DLAYER
10
1.15386733645969
20
2.41247055377175
30
0.0416666666666667
 70
     32
  0
VERTEX
  8
MY3DLAYER
10
1.14201002712376
20
2.40944660990609
30
0.0416666666666667
 70
     32
  0
VERTEX
  8
MY3DLAYER
10
1.12977409154213
20
2.4095946019088
30
0.0416666666666667
 70
     32
  0
VERTEX
  8
MY3DLAYER
10
1.11799338850385
20
2.41290444436948
30
0.0416666666666667
 70
     32
  0
VERTEX
  8
MY3DLAYER
10
1.10747075345245
20
2.4191505769942
30
0.0416666666666667
 70
     32
  0
VERTEX
  8
MY3DLAYER
10
1.0989232865772
20
2.42790733616682
30
0.0416666666666667
 70
     32
  0
VERTEX
  8
MY3DLAYER
10
1.0929334836203
20
2.43857796322093
30
0.0416666666666667
 70
     32
  0
VERTEX
  8
MY3DLAYER
10
1.08990953975463
20
2.45043527255686
30
0.0416666666666667
 70
     32
  0
VERTEX
  8
MY3DLAYER
10
1.09005753175735
20
2.46267120813849
30
0.0416666666666667
 70
     32
  0
VERTEX
  8
MY3DLAYER
10
1.09336737421803
20
2.47445191117677
30
0.0416666666666667
 70
     32
  0
VERTEX
  8
MY3DLAYER
10
1.09961350684275
20
2.48497454622817
30
0.0416666666666667
 70
     32
  0
VERTEX
  8
MY3DLAYER
10
1.10837026601536
20
2.49352201310342
30
0.0416666666666667
 70
     32
  0
VERTEX
  8
MY3DLAYER
10
1.11904089306948
20
2.49951181606033
30
0.0416666666666667
 70
     32
  0
SEQEND
  0
POLYLINE
 8
Group#1
 66
     1
70
    8
 10
0.0
 20
 0.0
 30
0.0
  0
VERTEX
  8
MY3DLAYER
10
1.49322494809792
20
2.49658612571843
30
0.0416666666666667
 70
     32
  0
VERTEX
  8
MY3DLAYER
10
1.50293307846604
20
2.48913681528416
30
0.0416666666666667
 70
     32
  0
VERTEX
  8
MY3DLAYER
10
1.51038238890031
20
2.47942868491604
30
0.0416666666666667
 70
     32
  0
VERTEX
  8
MY3DLAYER
10
1.51506522120522
20
2.46812332765522
30
0.0416666666666667
 70
     32
  0
VERTEX
  8
MY3DLAYER
10
1.51666244809792
20
2.45599118491604
30
0.0416666666666667
 70
     32
  0
VERTEX
  8
MY3DLAYER
10
1.51506522120522
20
2.44385904217686
30
0.0416666666666667
 70
     32
  0
VERTEX
  8
MY3DLAYER
10
1.51038238890031
20
2.43255368491604
30
0.0416666666666667
 70
     32
  0
VERTEX
  8
MY3DLAYER
10
1.50293307846604
20
2.42284555454792
30
0.0416666666666667
 70
     32
  0
VERTEX
  8
MY3DLAYER
10
1.49322494809792
20
2.41539624411364
30
0.0416666666666667
 70
     32
  0
VERTEX
  8
MY3DLAYER
10
1.4819195908371
20
2.41071341180874
30
0.0416666666666667
 70
     32
  0
VERTEX
  8
MY3DLAYER
10
1.46978744809792
20
2.40911618491604
30
0.0416666666666667
 70
     32
  0
VERTEX
  8
MY3DLAYER
10
1.45765530535874
20
2.41071341180874
30
0.0416666666666667
 70
     32
  0
VERTEX
  8
MY3DLAYER
10
1.44634994809792
20
2.41539624411364
30
0.0416666666666667
 70
     32
  0
VERTEX
  8
MY3DLAYER
10
1.4366418177298
20
2.42284555454792
30
0.0416666666666667
 70
     32
  0
VERTEX
  8
MY3DLAYER
10
1.42919250729552
20
2.43255368491604
30
0.0416666666666667
 70
     32
  0
VERTEX
  8
MY3DLAYER
10
1.42450967499062
20
2.44385904217686
30
0.0416666666666667
 70
     32
  0
VERTEX
  8
MY3DLAYER
10
1.42291244809792
20
2.45599118491604
30
0.0416666666666667
 70
     32
  0
VERTEX
  8
MY3DLAYER
10
1.42450967499062
20
2.46812332765522
30
0.0416666666666667
 70
     32
  0
VERTEX
  8
MY3DLAYER
10
1.42919250729552
20
2.47942868491604
30
0.0416666666666667
 70
     32
  0
VERTEX
  8
MY3DLAYER
10
1.4366418177298
20
2.48913681528416
30
0.0416666666666667
 70
     32
  0
VERTEX
  8
MY3DLAYER
10
1.44634994809792
20
2.49658612571843
30
0.0416666666666667
 70
     32
  0
VERTEX
  8
MY3DLAYER
10
1.45765530535874
20
2.50126895802334
30
0.0416666666666667
 70
     32
  0
VERTEX
  8
MY3DLAYER
10
1.46978744809792
20
2.50286618491604
30
0.0416666666666667
 70
     32
  0
VERTEX
  8
MY3DLAYER
10
1.4819195908371
20
2.50126895802334
30
0.0416666666666667
 70
     32
  0
VERTEX
  8
MY3DLAYER
10
1.49322494809792
20
2.49658612571843
30
0.0416666666666667
 70
     32
  0
SEQEND
  0
POLYLINE
 8
Group#1
 66
     1
70
    8
 10
0.0
 20
 0.0
 30
0.0
  0
VERTEX
  8
MY3DLAYER
10
1.4066392830353
20
2.88592750084467
30
0.0
 70
     32
  0
VERTEX
  8
MY3DLAYER
10
1.38497815982163
20
2.86152230325094
30
0.0
 70
     32
  0
VERTEX
  8
MY3DLAYER
10
1.38497815982163
20
2.86152230325094
30
0.0416666666666667
 70
     32
  0
VERTEX
  8
MY3DLAYER
10
1.4066392830353
20
2.88592750084467
30
0.0416666666666667
 70
     32
  0
VERTEX
  8
MY3DLAYER
10
1.4066392830353
20
2.88592750084467
30
0.0
 70
     32
  0
SEQEND
  0
POLYLINE
 8
Group#1
 66
     1
70
    8
 10
0.0
 20
 0.0
 30
0.0
  0
VERTEX
  8
MY3DLAYER
10
1.24850297131613
20
3.0684273660066
30
0.0
 70
     32
  0
VERTEX
  8
MY3DLAYER
10
1.27946465309054
20
3.07873232550031
30
0.0
 70
     32
  0
VERTEX
  8
MY3DLAYER
10
1.27946465309054
20
3.07873232550031
30
0.0416666666666667
 70
     32
  0
VERTEX
  8
MY3DLAYER
10
1.24850297131613
20
3.0684273660066
30
0.0416666666666667
 70
     32
  0
VERTEX
  8
MY3DLAYER
10
1.24850297131613
20
3.0684273660066
30
0.0
 70
     32
  0
SEQEND
  0
POLYLINE
 8
Group#1
 66
     1
70
    8
 10
0.0
 20
 0.0
 30
0.0
  0
VERTEX
  8
MY3DLAYER
10
1.22126340304087
20
3.05046006658113
30
0.0
 70
     32
  0
VERTEX
  8
MY3DLAYER
10
1.24850297131613
20
3.0684273660066
30
0.0
 70
     32
  0
VERTEX
  8
MY3DLAYER
10
1.24850297131613
20
3.0684273660066
30
0.0416666666666667
 70
     32
  0
VERTEX
  8
MY3DLAYER
10
1.22126340304087
20
3.05046006658113
30
0.0416666666666667
 70
     32
  0
VERTEX
  8
MY3DLAYER
10
1.22126340304087
20
3.05046006658113
30
0.0
 70
     32
  0
SEQEND
  0
POLYLINE
 8
Group#1
 66
     1
70
    8
 10
0.0
 20
 0.0
 30
0.0
  0
VERTEX
  8
MY3DLAYER
10
1.42780227561774
20
2.94707350542953
30
0.0
 70
     32
  0
VERTEX
  8
MY3DLAYER
10
1.42124579143707
20
2.91510742272215
30
0.0
 70
     32
  0
VERTEX
  8
MY3DLAYER
10
1.42124579143707
20
2.91510742272215
30
0.0416666666666667
 70
     32
  0
VERTEX
  8
MY3DLAYER
10
1.42780227561774
20
2.94707350542953
30
0.0416666666666667
 70
     32
  0
VERTEX
  8
MY3DLAYER
10
1.42780227561774
20
2.94707350542953
30
0.0
 70
     32
  0
SEQEND
  0
POLYLINE
 8
Group#1
 66
     1
70
    8
 10
0.0
 20
 0.0
 30
0.0
  0
VERTEX
  8
MY3DLAYER
10
1.18173188787189
20
2.80145666098855
30
0.0
 70
     32
  0
VERTEX
  8
MY3DLAYER
10
1.18332911476459
20
2.78932451824937
30
0.0
 70
     32
  0
VERTEX
  8
MY3DLAYER
10
1.18332911476459
20
2.78932451824937
30
0.0416666666666667
 70
     32
  0
VERTEX
  8
MY3DLAYER
10
1.18173188787189
20
2.80145666098855
30
0.0416666666666667
 70
     32
  0
VERTEX
  8
MY3DLAYER
10
1.18173188787189
20
2.80145666098855
30
0.0
 70
     32
  0
SEQEND
  0
POLYLINE
 8
Group#1
 66
     1
70
    8
 10
0.0
 20
 0.0
 30
0.0
  0
VERTEX
  8
MY3DLAYER
10
1.17704905556698
20
2.81276201824937
30
0.0
 70
     32
  0
VERTEX
  8
MY3DLAYER
10
1.18173188787189
20
2.80145666098855
30
0.0
 70
     32
  0
VERTEX
  8
MY3DLAYER
10
1.18173188787189
20
2.80145666098855
30
0.0416666666666667
 70
     32
  0
VERTEX
  8
MY3DLAYER
10
1.17704905556698
20
2.81276201824937
30
0.0416666666666667
 70
     32
  0
VERTEX
  8
MY3DLAYER
10
1.17704905556698
20
2.81276201824937
30
0.0
 70
     32
  0
SEQEND
  0
POLYLINE
 8
Group#1
 66
     1
70
    8
 10
0.0
 20
 0.0
 30
0.0
  0
VERTEX
  8
MY3DLAYER
10
1.46286691151902
20
2.74296320033821
30
0.0
 70
     32
  0
VERTEX
  8
MY3DLAYER
10
1.45110353105312
20
2.74633409060713
30
0.0
 70
     32
  0
VERTEX
  8
MY3DLAYER
10
1.45110353105312
20
2.74633409060713
30
0.0416666666666667
 70
     32
  0
VERTEX
  8
MY3DLAYER
10
1.46286691151902
20
2.74296320033821
30
0.0416666666666667
 70
     32
  0
VERTEX
  8
MY3DLAYER
10
1.46286691151902
20
2.74296320033821
30
0.0
 70
     32
  0
SEQEND
  0
POLYLINE
 8
Group#1
 66
     1
70
    8
 10
0.0
 20
 0.0
 30
0.0
  0
VERTEX
  8
MY3DLAYER
10
1.47510191511604
20
2.74275175726923
30
0.0
 70
     32
  0
VERTEX
  8
MY3DLAYER
10
1.46286691151902
20
2.74296320033821
30
0.0
 70
     32
  0
VERTEX
  8
MY3DLAYER
10
1.46286691151902
20
2.74296320033821
30
0.0416666666666667
 70
     32
  0
VERTEX
  8
MY3DLAYER
10
1.47510191511604
20
2.74275175726923
30
0.0416666666666667
 70
     32
  0
VERTEX
  8
MY3DLAYER
10
1.47510191511604
20
2.74275175726923
30
0.0
 70
     32
  0
SEQEND
  0
POLYLINE
 8
Group#1
 66
     1
70
    8
 10
0.0
 20
 0.0
 30
0.0
  0
VERTEX
  8
MY3DLAYER
10
1.17926092708715
20
2.10355700228797
30
0.0
 70
     32
  0
VERTEX
  8
MY3DLAYER
10
1.17285865675295
20
2.09312862965565
30
0.0
 70
     32
  0
VERTEX
  8
MY3DLAYER
10
1.17285865675295
20
2.09312862965565
30
0.0416666666666667
 70
     32
  0
VERTEX
  8
MY3DLAYER
10
1.17926092708715
20
2.10355700228797
30
0.0416666666666667
 70
     32
  0
VERTEX
  8
MY3DLAYER
10
1.17926092708715
20
2.10355700228797
30
0.0
 70
     32
  0
SEQEND
  0
POLYLINE
 8
Group#1
 66
     1
70
    8
 10
0.0
 20
 0.0
 30
0.0
  0
VERTEX
  8
MY3DLAYER
10
1.18274598390318
20
2.11528706623407
30
0.0
 70
     32
  0
VERTEX
  8
MY3DLAYER
10
1.17926092708715
20
2.10355700228797
30
0.0
 70
     32
  0
VERTEX
  8
MY3DLAYER
10
1.17926092708715
20
2.10355700228797
30
0.0416666666666667
 70
     32
  0
VERTEX
  8
MY3DLAYER
10
1.18274598390318
20
2.11528706623407
30
0.0416666666666667
 70
     32
  0
VERTEX
  8
MY3DLAYER
10
1.18274598390318
20
2.11528706623407
30
0.0
 70
     32
  0
SEQEND
  0
POLYLINE
 8
Group#1
 66
     1
70
    8
 10
0.0
 20
 0.0
 30
0.0
  0
VERTEX
  8
MY3DLAYER
10
1.18307632633833
20
2.12751943702089
30
0.0
 70
     32
  0
VERTEX
  8
MY3DLAYER
10
1.18274598390318
20
2.11528706623407
30
0.0
 70
     32
  0
VERTEX
  8
MY3DLAYER
10
1.18274598390318
20
2.11528706623407
30
0.0416666666666667
 70
     32
  0
VERTEX
  8
MY3DLAYER
10
1.18307632633833
20
2.12751943702089
30
0.0416666666666667
 70
     32
  0
VERTEX
  8
MY3DLAYER
10
1.18307632633833
20
2.12751943702089
30
0.0
 70
     32
  0
SEQEND
  0
POLYLINE
 8
Group#1
 66
     1
70
    8
 10
0.0
 20
 0.0
 30
0.0
  0
VERTEX
  8
MY3DLAYER
10
1.17843928724476
20
2.96490886440255
30
0.0
 70
     32
  0
VERTEX
  8
MY3DLAYER
10
1.18499577142544
20
2.99687494710993
30
0.0
 70
     32
  0
VERTEX
  8
MY3DLAYER
10
1.18499577142544
20
2.99687494710993
30
0.0416666666666667
 70
     32
  0
VERTEX
  8
MY3DLAYER
10
1.17843928724476
20
2.96490886440255
30
0.0416666666666667
 70
     32
  0
VERTEX
  8
MY3DLAYER
10
1.17843928724476
20
2.96490886440255
30
0.0
 70
     32
  0
SEQEND
  0
POLYLINE
 8
Group#1
 66
     1
70
    8
 10
0.0
 20
 0.0
 30
0.0
  0
VERTEX
  8
MY3DLAYER
10
1.11301661476459
20
2.74872957744698
30
0.0
 70
     32
  0
VERTEX
  8
MY3DLAYER
10
1.10330848439647
20
2.75617888788125
30
0.0
 70
     32
  0
VERTEX
  8
MY3DLAYER
10
1.10330848439647
20
2.75617888788125
30
0.0416666666666667
 70
     32
  0
VERTEX
  8
MY3DLAYER
10
1.11301661476459
20
2.74872957744698
30
0.0416666666666667
 70
     32
  0
VERTEX
  8
MY3DLAYER
10
1.11301661476459
20
2.74872957744698
30
0.0
 70
     32
  0
SEQEND
  0
POLYLINE
 8
Group#1
 66
     1
70
    8
 10
0.0
 20
 0.0
 30
0.0
  0
VERTEX
  8
MY3DLAYER
10
1.12432197202541
20
2.74404674514207
30
0.0
 70
     32
  0
VERTEX
  8
MY3DLAYER
10
1.11301661476459
20
2.74872957744698
30
0.0
 70
     32
  0
VERTEX
  8
MY3DLAYER
10
1.11301661476459
20
2.74872957744698
30
0.0416666666666667
 70
     32
  0
VERTEX
  8
MY3DLAYER
10
1.12432197202541
20
2.74404674514207
30
0.0416666666666667
 70
     32
  0
VERTEX
  8
MY3DLAYER
10
1.12432197202541
20
2.74404674514207
30
0.0
 70
     32
  0
SEQEND
  0
POLYLINE
 8
Group#1
 66
     1
70
    8
 10
0.0
 20
 0.0
 30
0.0
  0
VERTEX
  8
MY3DLAYER
10
1.13645411476459
20
2.74244951824937
30
0.0
 70
     32
  0
VERTEX
  8
MY3DLAYER
10
1.12432197202541
20
2.74404674514207
30
0.0
 70
     32
  0
VERTEX
  8
MY3DLAYER
10
1.12432197202541
20
2.74404674514207
30
0.0416666666666667
 70
     32
  0
VERTEX
  8
MY3DLAYER
10
1.13645411476459
20
2.74244951824937
30
0.0416666666666667
 70
     32
  0
VERTEX
  8
MY3DLAYER
10
1.13645411476459
20
2.74244951824937
30
0.0
 70
     32
  0
SEQEND
  0
POLYLINE
 8
Group#1
 66
     1
70
    8
 10
0.0
 20
 0.0
 30
0.0
  0
VERTEX
  8
MY3DLAYER
10
1.14858625750377
20
2.74404674514207
30
0.0
 70
     32
  0
VERTEX
  8
MY3DLAYER
10
1.13645411476459
20
2.74244951824937
30
0.0
 70
     32
  0
VERTEX
  8
MY3DLAYER
10
1.13645411476459
20
2.74244951824937
30
0.0416666666666667
 70
     32
  0
VERTEX
  8
MY3DLAYER
10
1.14858625750377
20
2.74404674514207
30
0.0416666666666667
 70
     32
  0
VERTEX
  8
MY3DLAYER
10
1.14858625750377
20
2.74404674514207
30
0.0
 70
     32
  0
SEQEND
  0
POLYLINE
 8
Group#1
 66
     1
70
    8
 10
0.0
 20
 0.0
 30
0.0
  0
VERTEX
  8
MY3DLAYER
10
1.15989161476459
20
2.74872957744698
30
0.0
 70
     32
  0
VERTEX
  8
MY3DLAYER
10
1.14858625750377
20
2.74404674514207
30
0.0
 70
     32
  0
VERTEX
  8
MY3DLAYER
10
1.14858625750377
20
2.74404674514207
30
0.0416666666666667
 70
     32
  0
VERTEX
  8
MY3DLAYER
10
1.15989161476459
20
2.74872957744698
30
0.0416666666666667
 70
     32
  0
VERTEX
  8
MY3DLAYER
10
1.15989161476459
20
2.74872957744698
30
0.0
 70
     32
  0
SEQEND
  0
POLYLINE
 8
Group#1
 66
     1
70
    8
 10
0.0
 20
 0.0
 30
0.0
  0
VERTEX
  8
MY3DLAYER
10
1.16959974513271
20
2.82247014861749
30
0.0
 70
     32
  0
VERTEX
  8
MY3DLAYER
10
1.17704905556698
20
2.81276201824937
30
0.0
 70
     32
  0
VERTEX
  8
MY3DLAYER
10
1.17704905556698
20
2.81276201824937
30
0.0416666666666667
 70
     32
  0
VERTEX
  8
MY3DLAYER
10
1.16959974513271
20
2.82247014861749
30
0.0416666666666667
 70
     32
  0
VERTEX
  8
MY3DLAYER
10
1.16959974513271
20
2.82247014861749
30
0.0
 70
     32
  0
SEQEND
  0
POLYLINE
 8
Group#1
 66
     1
70
    8
 10
0.0
 20
 0.0
 30
0.0
  0
VERTEX
  8
MY3DLAYER
10
1.09364730244202
20
2.14175870087744
30
0.0
 70
     32
  0
VERTEX
  8
MY3DLAYER
10
1.10004957277622
20
2.15218707350976
30
0.0
 70
     32
  0
VERTEX
  8
MY3DLAYER
10
1.10004957277622
20
2.15218707350976
30
0.0416666666666667
 70
     32
  0
VERTEX
  8
MY3DLAYER
10
1.09364730244202
20
2.14175870087744
30
0.0416666666666667
 70
     32
  0
VERTEX
  8
MY3DLAYER
10
1.09364730244202
20
2.14175870087744
30
0.0
 70
     32
  0
SEQEND
  0
POLYLINE
 8
Group#1
 66
     1
70
    8
 10
0.0
 20
 0.0
 30
0.0
  0
VERTEX
  8
MY3DLAYER
10
1.090162245626
20
2.13002863693134
30
0.0
 70
     32
  0
VERTEX
  8
MY3DLAYER
10
1.09364730244202
20
2.14175870087744
30
0.0
 70
     32
  0
VERTEX
  8
MY3DLAYER
10
1.09364730244202
20
2.14175870087744
30
0.0416666666666667
 70
     32
  0
VERTEX
  8
MY3DLAYER
10
1.090162245626
20
2.13002863693134
30
0.0416666666666667
 70
     32
  0
VERTEX
  8
MY3DLAYER
10
1.090162245626
20
2.13002863693134
30
0.0
 70
     32
  0
SEQEND
  0
POLYLINE
 8
Group#1
 66
     1
70
    8
 10
0.0
 20
 0.0
 30
0.0
  0
VERTEX
  8
MY3DLAYER
10
1.08983190319084
20
2.11779626614452
30
0.0
 70
     32
  0
VERTEX
  8
MY3DLAYER
10
1.090162245626
20
2.13002863693134
30
0.0
 70
     32
  0
VERTEX
  8
MY3DLAYER
10
1.090162245626
20
2.13002863693134
30
0.0416666666666667
 70
     32
  0
VERTEX
  8
MY3DLAYER
10
1.08983190319084
20
2.11779626614452
30
0.0416666666666667
 70
     32
  0
VERTEX
  8
MY3DLAYER
10
1.08983190319084
20
2.11779626614452
30
0.0
 70
     32
  0
SEQEND
  0
POLYLINE
 8
Group#1
 66
     1
70
    8
 10
0.0
 20
 0.0
 30
0.0
  0
VERTEX
  8
MY3DLAYER
10
1.10004957277622
20
2.15218707350976
30
0.0
 70
     32
  0
VERTEX
  8
MY3DLAYER
10
1.10893275248558
20
2.16060307846709
30
0.0
 70
     32
  0
VERTEX
  8
MY3DLAYER
10
1.10893275248558
20
2.16060307846709
30
0.0416666666666667
 70
     32
  0
VERTEX
  8
MY3DLAYER
10
1.10004957277622
20
2.15218707350976
30
0.0416666666666667
 70
     32
  0
VERTEX
  8
MY3DLAYER
10
1.10004957277622
20
2.15218707350976
30
0.0
 70
     32
  0
SEQEND
  0
POLYLINE
 8
Group#1
 66
     1
70
    8
 10
0.0
 20
 0.0
 30
0.0
  0
VERTEX
  8
MY3DLAYER
10
1.1996022798272
20
3.02605486898741
30
0.0
 70
     32
  0
VERTEX
  8
MY3DLAYER
10
1.22126340304087
20
3.05046006658113
30
0.0
 70
     32
  0
VERTEX
  8
MY3DLAYER
10
1.22126340304087
20
3.05046006658113
30
0.0416666666666667
 70
     32
  0
VERTEX
  8
MY3DLAYER
10
1.1996022798272
20
3.02605486898741
30
0.0416666666666667
 70
     32
  0
VERTEX
  8
MY3DLAYER
10
1.1996022798272
20
3.02605486898741
30
0.0
 70
     32
  0
SEQEND
  0
POLYLINE
 8
Group#1
 66
     1
70
    8
 10
0.0
 20
 0.0
 30
0.0
  0
VERTEX
  8
MY3DLAYER
10
1.18499577142544
20
2.99687494710993
30
0.0
 70
     32
  0
VERTEX
  8
MY3DLAYER
10
1.1996022798272
20
3.02605486898741
30
0.0
 70
     32
  0
VERTEX
  8
MY3DLAYER
10
1.1996022798272
20
3.02605486898741
30
0.0416666666666667
 70
     32
  0
VERTEX
  8
MY3DLAYER
10
1.18499577142544
20
2.99687494710993
30
0.0416666666666667
 70
     32
  0
VERTEX
  8
MY3DLAYER
10
1.18499577142544
20
2.99687494710993
30
0.0
 70
     32
  0
SEQEND
  0
POLYLINE
 8
Group#1
 66
     1
70
    8
 10
0.0
 20
 0.0
 30
0.0
  0
VERTEX
  8
MY3DLAYER
10
1.43309763732337
20
2.8184985376901
30
0.0
 70
     32
  0
VERTEX
  8
MY3DLAYER
10
1.44189860416258
20
2.82700047887349
30
0.0
 70
     32
  0
VERTEX
  8
MY3DLAYER
10
1.44189860416258
20
2.82700047887349
30
0.0416666666666667
 70
     32
  0
VERTEX
  8
MY3DLAYER
10
1.43309763732337
20
2.8184985376901
30
0.0416666666666667
 70
     32
  0
VERTEX
  8
MY3DLAYER
10
1.43309763732337
20
2.8184985376901
30
0.0
 70
     32
  0
SEQEND
  0
POLYLINE
 8
Group#1
 66
     1
70
    8
 10
0.0
 20
 0.0
 30
0.0
  0
VERTEX
  8
MY3DLAYER
10
1.42679702045568
20
2.80800843529417
30
0.0
 70
     32
  0
VERTEX
  8
MY3DLAYER
10
1.43309763732337
20
2.8184985376901
30
0.0
 70
     32
  0
VERTEX
  8
MY3DLAYER
10
1.43309763732337
20
2.8184985376901
30
0.0416666666666667
 70
     32
  0
VERTEX
  8
MY3DLAYER
10
1.42679702045568
20
2.80800843529417
30
0.0416666666666667
 70
     32
  0
VERTEX
  8
MY3DLAYER
10
1.42679702045568
20
2.80800843529417
30
0.0
 70
     32
  0
SEQEND
  0
POLYLINE
 8
Group#1
 66
     1
70
    8
 10
0.0
 20
 0.0
 30
0.0
  0
VERTEX
  8
MY3DLAYER
10
1.42342613018675
20
2.79624505482827
30
0.0
 70
     32
  0
VERTEX
  8
MY3DLAYER
10
1.42679702045568
20
2.80800843529417
30
0.0
 70
     32
  0
VERTEX
  8
MY3DLAYER
10
1.42679702045568
20
2.80800843529417
30
0.0416666666666667
 70
     32
  0
VERTEX
  8
MY3DLAYER
10
1.42342613018675
20
2.79624505482827
30
0.0416666666666667
 70
     32
  0
VERTEX
  8
MY3DLAYER
10
1.42342613018675
20
2.79624505482827
30
0.0
 70
     32
  0
SEQEND
  0
POLYLINE
 8
Group#1
 66
     1
70
    8
 10
0.0
 20
 0.0
 30
0.0
  0
VERTEX
  8
MY3DLAYER
10
1.42321468711778
20
2.78401005123125
30
0.0
 70
     32
  0
VERTEX
  8
MY3DLAYER
10
1.42342613018675
20
2.79624505482827
30
0.0
 70
     32
  0
VERTEX
  8
MY3DLAYER
10
1.42342613018675
20
2.79624505482827
30
0.0416666666666667
 70
     32
  0
VERTEX
  8
MY3DLAYER
10
1.42321468711778
20
2.78401005123125
30
0.0416666666666667
 70
     32
  0
VERTEX
  8
MY3DLAYER
10
1.42321468711778
20
2.78401005123125
30
0.0
 70
     32
  0
SEQEND
  0
POLYLINE
 8
Group#1
 66
     1
70
    8
 10
0.0
 20
 0.0
 30
0.0
  0
VERTEX
  8
MY3DLAYER
10
1.42617710074447
20
2.77213721977894
30
0.0
 70
     32
  0
VERTEX
  8
MY3DLAYER
10
1.42321468711778
20
2.78401005123125
30
0.0
 70
     32
  0
VERTEX
  8
MY3DLAYER
10
1.42321468711778
20
2.78401005123125
30
0.0416666666666667
 70
     32
  0
VERTEX
  8
MY3DLAYER
10
1.42617710074447
20
2.77213721977894
30
0.0416666666666667
 70
     32
  0
VERTEX
  8
MY3DLAYER
10
1.42617710074447
20
2.77213721977894
30
0.0
 70
     32
  0
SEQEND
  0
POLYLINE
 8
Group#1
 66
     1
70
    8
 10
0.0
 20
 0.0
 30
0.0
  0
VERTEX
  8
MY3DLAYER
10
1.4321114874738
20
2.76143567431403
30
0.0
 70
     32
  0
VERTEX
  8
MY3DLAYER
10
1.42617710074447
20
2.77213721977894
30
0.0
 70
     32
  0
VERTEX
  8
MY3DLAYER
10
1.42617710074447
20
2.77213721977894
30
0.0416666666666667
 70
     32
  0
VERTEX
  8
MY3DLAYER
10
1.4321114874738
20
2.76143567431403
30
0.0416666666666667
 70
     32
  0
VERTEX
  8
MY3DLAYER
10
1.4321114874738
20
2.76143567431403
30
0.0
 70
     32
  0
SEQEND
  0
POLYLINE
 8
Group#1
 66
     1
70
    8
 10
0.0
 20
 0.0
 30
0.0
  0
VERTEX
  8
MY3DLAYER
10
1.44061342865719
20
2.75263470747483
30
0.0
 70
     32
  0
VERTEX
  8
MY3DLAYER
10
1.4321114874738
20
2.76143567431403
30
0.0
 70
     32
  0
VERTEX
  8
MY3DLAYER
10
1.4321114874738
20
2.76143567431403
30
0.0416666666666667
 70
     32
  0
VERTEX
  8
MY3DLAYER
10
1.44061342865719
20
2.75263470747483
30
0.0416666666666667
 70
     32
  0
VERTEX
  8
MY3DLAYER
10
1.44061342865719
20
2.75263470747483
30
0.0
 70
     32
  0
SEQEND
  0
POLYLINE
 8
Group#1
 66
     1
70
    8
 10
0.0
 20
 0.0
 30
0.0
  0
VERTEX
  8
MY3DLAYER
10
1.45110353105312
20
2.74633409060713
30
0.0
 70
     32
  0
VERTEX
  8
MY3DLAYER
10
1.44061342865719
20
2.75263470747483
30
0.0
 70
     32
  0
VERTEX
  8
MY3DLAYER
10
1.44061342865719
20
2.75263470747483
30
0.0416666666666667
 70
     32
  0
VERTEX
  8
MY3DLAYER
10
1.45110353105312
20
2.74633409060713
30
0.0416666666666667
 70
     32
  0
VERTEX
  8
MY3DLAYER
10
1.45110353105312
20
2.74633409060713
30
0.0
 70
     32
  0
SEQEND
  0
POLYLINE
 8
Group#1
 66
     1
70
    8
 10
0.0
 20
 0.0
 30
0.0
  0
VERTEX
  8
MY3DLAYER
10
1.10692489283753
20
2.08625330959434
30
0.0
 70
     32
  0
VERTEX
  8
MY3DLAYER
10
1.0985088878802
20
2.0951364893037
30
0.0
 70
     32
  0
VERTEX
  8
MY3DLAYER
10
1.0985088878802
20
2.0951364893037
30
0.0416666666666667
 70
     32
  0
VERTEX
  8
MY3DLAYER
10
1.10692489283753
20
2.08625330959434
30
0.0416666666666667
 70
     32
  0
VERTEX
  8
MY3DLAYER
10
1.10692489283753
20
2.08625330959434
30
0.0
 70
     32
  0
SEQEND
  0
POLYLINE
 8
Group#1
 66
     1
70
    8
 10
0.0
 20
 0.0
 30
0.0
  0
VERTEX
  8
MY3DLAYER
10
1.11735326546985
20
2.07985103926014
30
0.0
 70
     32
  0
VERTEX
  8
MY3DLAYER
10
1.10692489283753
20
2.08625330959434
30
0.0
 70
     32
  0
VERTEX
  8
MY3DLAYER
10
1.10692489283753
20
2.08625330959434
30
0.0416666666666667
 70
     32
  0
VERTEX
  8
MY3DLAYER
10
1.11735326546985
20
2.07985103926014
30
0.0416666666666667
 70
     32
  0
VERTEX
  8
MY3DLAYER
10
1.11735326546985
20
2.07985103926014
30
0.0
 70
     32
  0
SEQEND
  0
POLYLINE
 8
Group#1
 66
     1
70
    8
 10
0.0
 20
 0.0
 30
0.0
  0
VERTEX
  8
MY3DLAYER
10
1.26223701923736
20
2.83786617491022
30
0.0
 70
     32
  0
VERTEX
  8
MY3DLAYER
10
1.23305709735988
20
2.85247268331199
30
0.0
 70
     32
  0
VERTEX
  8
MY3DLAYER
10
1.23305709735988
20
2.85247268331199
30
0.0416666666666667
 70
     32
  0
VERTEX
  8
MY3DLAYER
10
1.26223701923736
20
2.83786617491022
30
0.0416666666666667
 70
     32
  0
VERTEX
  8
MY3DLAYER
10
1.26223701923736
20
2.83786617491022
30
0.0
 70
     32
  0
SEQEND
  0
POLYLINE
 8
Group#1
 66
     1
70
    8
 10
0.0
 20
 0.0
 30
0.0
  0
VERTEX
  8
MY3DLAYER
10
1.29420310194474
20
2.83130969072955
30
0.0
 70
     32
  0
VERTEX
  8
MY3DLAYER
10
1.26223701923736
20
2.83786617491022
30
0.0
 70
     32
  0
VERTEX
  8
MY3DLAYER
10
1.26223701923736
20
2.83786617491022
30
0.0416666666666667
 70
     32
  0
VERTEX
  8
MY3DLAYER
10
1.29420310194474
20
2.83130969072955
30
0.0416666666666667
 70
     32
  0
VERTEX
  8
MY3DLAYER
10
1.29420310194474
20
2.83130969072955
30
0.0
 70
     32
  0
SEQEND
  0
POLYLINE
 8
Group#1
 66
     1
70
    8
 10
0.0
 20
 0.0
 30
0.0
  0
VERTEX
  8
MY3DLAYER
10
1.32677690977197
20
2.83325004433177
30
0.0
 70
     32
  0
VERTEX
  8
MY3DLAYER
10
1.29420310194474
20
2.83130969072955
30
0.0
 70
     32
  0
VERTEX
  8
MY3DLAYER
10
1.29420310194474
20
2.83130969072955
30
0.0416666666666667
 70
     32
  0
VERTEX
  8
MY3DLAYER
10
1.32677690977197
20
2.83325004433177
30
0.0416666666666667
 70
     32
  0
VERTEX
  8
MY3DLAYER
10
1.32677690977197
20
2.83325004433177
30
0.0
 70
     32
  0
SEQEND
  0
POLYLINE
 8
Group#1
 66
     1
70
    8
 10
0.0
 20
 0.0
 30
0.0
  0
VERTEX
  8
MY3DLAYER
10
1.35773859154637
20
2.84355500382548
30
0.0
 70
     32
  0
VERTEX
  8
MY3DLAYER
10
1.32677690977197
20
2.83325004433177
30
0.0
 70
     32
  0
VERTEX
  8
MY3DLAYER
10
1.32677690977197
20
2.83325004433177
30
0.0416666666666667
 70
     32
  0
VERTEX
  8
MY3DLAYER
10
1.35773859154637
20
2.84355500382548
30
0.0416666666666667
 70
     32
  0
VERTEX
  8
MY3DLAYER
10
1.35773859154637
20
2.84355500382548
30
0.0
 70
     32
  0
SEQEND
  0
POLYLINE
 8
Group#1
 66
     1
70
    8
 10
0.0
 20
 0.0
 30
0.0
  0
VERTEX
  8
MY3DLAYER
10
1.38497815982163
20
2.86152230325094
30
0.0
 70
     32
  0
VERTEX
  8
MY3DLAYER
10
1.35773859154637
20
2.84355500382548
30
0.0
 70
     32
  0
VERTEX
  8
MY3DLAYER
10
1.35773859154637
20
2.84355500382548
30
0.0416666666666667
 70
     32
  0
VERTEX
  8
MY3DLAYER
10
1.38497815982163
20
2.86152230325094
30
0.0416666666666667
 70
     32
  0
VERTEX
  8
MY3DLAYER
10
1.38497815982163
20
2.86152230325094
30
0.0
 70
     32
  0
SEQEND
  0
POLYLINE
 8
Group#1
 66
     1
70
    8
 10
0.0
 20
 0.0
 30
0.0
  0
VERTEX
  8
MY3DLAYER
10
1.23305709735988
20
2.85247268331199
30
0.0
 70
     32
  0
VERTEX
  8
MY3DLAYER
10
1.20865189976616
20
2.87413380652566
30
0.0
 70
     32
  0
VERTEX
  8
MY3DLAYER
10
1.20865189976616
20
2.87413380652566
30
0.0416666666666667
 70
     32
  0
VERTEX
  8
MY3DLAYER
10
1.23305709735988
20
2.85247268331199
30
0.0416666666666667
 70
     32
  0
VERTEX
  8
MY3DLAYER
10
1.23305709735988
20
2.85247268331199
30
0.0
 70
     32
  0
SEQEND
  0
POLYLINE
 8
Group#1
 66
     1
70
    8
 10
0.0
 20
 0.0
 30
0.0
  0
VERTEX
  8
MY3DLAYER
10
1.01444564683644
20
3.10182451824937
30
0.0
 70
     32
  0
VERTEX
  8
MY3DLAYER
10
0.981145506001563
20
3.02143086661688
30
0.0
 70
     32
  0
VERTEX
  8
MY3DLAYER
10
0.981145506001563
20
3.02143086661688
30
0.0416666666666667
 70
     32
  0
VERTEX
  8
MY3DLAYER
10
1.01444564683644
20
3.10182451824937
30
0.0416666666666667
 70
     32
  0
VERTEX
  8
MY3DLAYER
10
1.01444564683644
20
3.10182451824937
30
0.0
 70
     32
  0
SEQEND
  0
POLYLINE
 8
Group#1
 66
     1
70
    8
 10
0.0
 20
 0.0
 30
0.0
  0
VERTEX
  8
MY3DLAYER
10
1.06741852103574
20
3.17086011197822
30
0.0
 70
     32
  0
VERTEX
  8
MY3DLAYER
10
1.01444564683644
20
3.10182451824937
30
0.0
 70
     32
  0
VERTEX
  8
MY3DLAYER
10
1.01444564683644
20
3.10182451824937
30
0.0416666666666667
 70
     32
  0
VERTEX
  8
MY3DLAYER
10
1.06741852103574
20
3.17086011197822
30
0.0416666666666667
 70
     32
  0
VERTEX
  8
MY3DLAYER
10
1.06741852103574
20
3.17086011197822
30
0.0
 70
     32
  0
SEQEND
  0
POLYLINE
 8
Group#1
 66
     1
70
    8
 10
0.0
 20
 0.0
 30
0.0
  0
VERTEX
  8
MY3DLAYER
10
1.13645411476459
20
3.22383298617752
30
0.0
 70
     32
  0
VERTEX
  8
MY3DLAYER
10
1.06741852103574
20
3.17086011197822
30
0.0
 70
     32
  0
VERTEX
  8
MY3DLAYER
10
1.06741852103574
20
3.17086011197822
30
0.0416666666666667
 70
     32
  0
VERTEX
  8
MY3DLAYER
10
1.13645411476459
20
3.22383298617752
30
0.0416666666666667
 70
     32
  0
VERTEX
  8
MY3DLAYER
10
1.13645411476459
20
3.22383298617752
30
0.0
 70
     32
  0
SEQEND
  0
POLYLINE
 8
Group#1
 66
     1
70
    8
 10
0.0
 20
 0.0
 30
0.0
  0
VERTEX
  8
MY3DLAYER
10
1.51277787574016
20
2.77064060120457
30
0.0
 70
     32
  0
VERTEX
  8
MY3DLAYER
10
1.50647725887246
20
2.76015049880864
30
0.0
 70
     32
  0
VERTEX
  8
MY3DLAYER
10
1.50647725887246
20
2.76015049880864
30
0.0416666666666667
 70
     32
  0
VERTEX
  8
MY3DLAYER
10
1.51277787574016
20
2.77064060120457
30
0.0416666666666667
 70
     32
  0
VERTEX
  8
MY3DLAYER
10
1.51277787574016
20
2.77064060120457
30
0.0
 70
     32
  0
SEQEND
  0
POLYLINE
 8
Group#1
 66
     1
70
    8
 10
0.0
 20
 0.0
 30
0.0
  0
VERTEX
  8
MY3DLAYER
10
1.51614876600908
20
2.78240398167047
30
0.0
 70
     32
  0
VERTEX
  8
MY3DLAYER
10
1.51277787574016
20
2.77064060120457
30
0.0
 70
     32
  0
VERTEX
  8
MY3DLAYER
10
1.51277787574016
20
2.77064060120457
30
0.0416666666666667
 70
     32
  0
VERTEX
  8
MY3DLAYER
10
1.51614876600908
20
2.78240398167047
30
0.0416666666666667
 70
     32
  0
VERTEX
  8
MY3DLAYER
10
1.51614876600908
20
2.78240398167047
30
0.0
 70
     32
  0
SEQEND
  0
POLYLINE
 8
Group#1
 66
     1
70
    8
 10
0.0
 20
 0.0
 30
0.0
  0
VERTEX
  8
MY3DLAYER
10
1.17285865675295
20
2.09312862965565
30
0.0
 70
     32
  0
VERTEX
  8
MY3DLAYER
10
1.16397547704359
20
2.08471262469832
30
0.0
 70
     32
  0
VERTEX
  8
MY3DLAYER
10
1.16397547704359
20
2.08471262469832
30
0.0416666666666667
 70
     32
  0
VERTEX
  8
MY3DLAYER
10
1.17285865675295
20
2.09312862965565
30
0.0416666666666667
 70
     32
  0
VERTEX
  8
MY3DLAYER
10
1.17285865675295
20
2.09312862965565
30
0.0
 70
     32
  0
SEQEND
  0
POLYLINE
 8
Group#1
 66
     1
70
    8
 10
0.0
 20
 0.0
 30
0.0
  0
VERTEX
  8
MY3DLAYER
10
1.51129193537904
20
2.10087154486194
30
0.0
 70
     32
  0
VERTEX
  8
MY3DLAYER
10
1.50423899316786
20
2.09087174349609
30
0.0
 70
     32
  0
VERTEX
  8
MY3DLAYER
10
1.50423899316786
20
2.09087174349609
30
0.0416666666666667
 70
     32
  0
VERTEX
  8
MY3DLAYER
10
1.51129193537904
20
2.10087154486194
30
0.0416666666666667
 70
     32
  0
VERTEX
  8
MY3DLAYER
10
1.51129193537904
20
2.10087154486194
30
0.0
 70
     32
  0
SEQEND
  0
POLYLINE
 8
Group#1
 66
     1
70
    8
 10
0.0
 20
 0.0
 30
0.0
  0
VERTEX
  8
MY3DLAYER
10
1.51551641537142
20
2.11235604702723
30
0.0
 70
     32
  0
VERTEX
  8
MY3DLAYER
10
1.51129193537904
20
2.10087154486194
30
0.0
 70
     32
  0
VERTEX
  8
MY3DLAYER
10
1.51129193537904
20
2.10087154486194
30
0.0416666666666667
 70
     32
  0
VERTEX
  8
MY3DLAYER
10
1.51551641537142
20
2.11235604702723
30
0.0416666666666667
 70
     32
  0
VERTEX
  8
MY3DLAYER
10
1.51551641537142
20
2.11235604702723
30
0.0
 70
     32
  0
SEQEND
  0
POLYLINE
 8
Group#1
 66
     1
70
    8
 10
0.0
 20
 0.0
 30
0.0
  0
VERTEX
  8
MY3DLAYER
10
1.12977409154213
20
2.4095946019088
30
0.0
 70
     32
  0
VERTEX
  8
MY3DLAYER
10
1.11799338850385
20
2.41290444436948
30
0.0
 70
     32
  0
VERTEX
  8
MY3DLAYER
10
1.11799338850385
20
2.41290444436948
30
0.0416666666666667
 70
     32
  0
VERTEX
  8
MY3DLAYER
10
1.12977409154213
20
2.4095946019088
30
0.0416666666666667
 70
     32
  0
VERTEX
  8
MY3DLAYER
10
1.12977409154213
20
2.4095946019088
30
0.0
 70
     32
  0
SEQEND
  0
POLYLINE
 8
Group#1
 66
     1
70
    8
 10
0.0
 20
 0.0
 30
0.0
  0
VERTEX
  8
MY3DLAYER
10
1.14201002712376
20
2.40944660990609
30
0.0
 70
     32
  0
VERTEX
  8
MY3DLAYER
10
1.12977409154213
20
2.4095946019088
30
0.0
 70
     32
  0
VERTEX
  8
MY3DLAYER
10
1.12977409154213
20
2.4095946019088
30
0.0416666666666667
 70
     32
  0
VERTEX
  8
MY3DLAYER
10
1.14201002712376
20
2.40944660990609
30
0.0416666666666667
 70
     32
  0
VERTEX
  8
MY3DLAYER
10
1.14201002712376
20
2.40944660990609
30
0.0
 70
     32
  0
SEQEND
  0
POLYLINE
 8
Group#1
 66
     1
70
    8
 10
0.0
 20
 0.0
 30
0.0
  0
VERTEX
  8
MY3DLAYER
10
1.17398494295197
20
2.48407503366526
30
0.0
 70
     32
  0
VERTEX
  8
MY3DLAYER
10
1.17997474590887
20
2.47340440661114
30
0.0
 70
     32
  0
VERTEX
  8
MY3DLAYER
10
1.17997474590887
20
2.47340440661114
30
0.0416666666666667
 70
     32
  0
VERTEX
  8
MY3DLAYER
10
1.17398494295197
20
2.48407503366526
30
0.0416666666666667
 70
     32
  0
VERTEX
  8
MY3DLAYER
10
1.17398494295197
20
2.48407503366526
30
0.0
 70
     32
  0
SEQEND
  0
POLYLINE
 8
Group#1
 66
     1
70
    8
 10
0.0
 20
 0.0
 30
0.0
  0
VERTEX
  8
MY3DLAYER
10
1.16543747607672
20
2.49283179283787
30
0.0
 70
     32
  0
VERTEX
  8
MY3DLAYER
10
1.17398494295197
20
2.48407503366526
30
0.0
 70
     32
  0
VERTEX
  8
MY3DLAYER
10
1.17398494295197
20
2.48407503366526
30
0.0416666666666667
 70
     32
  0
VERTEX
  8
MY3DLAYER
10
1.16543747607672
20
2.49283179283787
30
0.0416666666666667
 70
     32
  0
VERTEX
  8
MY3DLAYER
10
1.16543747607672
20
2.49283179283787
30
0.0
 70
     32
  0
SEQEND
  0
POLYLINE
 8
Group#1
 66
     1
70
    8
 10
0.0
 20
 0.0
 30
0.0
  0
VERTEX
  8
MY3DLAYER
10
1.15491484102532
20
2.4990779254626
30
0.0
 70
     32
  0
VERTEX
  8
MY3DLAYER
10
1.16543747607672
20
2.49283179283787
30
0.0
 70
     32
  0
VERTEX
  8
MY3DLAYER
10
1.16543747607672
20
2.49283179283787
30
0.0416666666666667
 70
     32
  0
VERTEX
  8
MY3DLAYER
10
1.15491484102532
20
2.4990779254626
30
0.0416666666666667
 70
     32
  0
VERTEX
  8
MY3DLAYER
10
1.15491484102532
20
2.4990779254626
30
0.0
 70
     32
  0
SEQEND
  0
POLYLINE
 8
Group#1
 66
     1
70
    8
 10
0.0
 20
 0.0
 30
0.0
  0
VERTEX
  8
MY3DLAYER
10
1.14313413798704
20
2.50238776792328
30
0.0
 70
     32
  0
VERTEX
  8
MY3DLAYER
10
1.15491484102532
20
2.4990779254626
30
0.0
 70
     32
  0
VERTEX
  8
MY3DLAYER
10
1.15491484102532
20
2.4990779254626
30
0.0416666666666667
 70
     32
  0
VERTEX
  8
MY3DLAYER
10
1.14313413798704
20
2.50238776792328
30
0.0416666666666667
 70
     32
  0
VERTEX
  8
MY3DLAYER
10
1.14313413798704
20
2.50238776792328
30
0.0
 70
     32
  0
SEQEND
  0
POLYLINE
 8
Group#1
 66
     1
70
    8
 10
0.0
 20
 0.0
 30
0.0
  0
VERTEX
  8
MY3DLAYER
10
1.09267878742758
20
2.10589520437117
30
0.0
 70
     32
  0
VERTEX
  8
MY3DLAYER
10
1.08983190319084
20
2.11779626614452
30
0.0
 70
     32
  0
VERTEX
  8
MY3DLAYER
10
1.08983190319084
20
2.11779626614452
30
0.0416666666666667
 70
     32
  0
VERTEX
  8
MY3DLAYER
10
1.09267878742758
20
2.10589520437117
30
0.0416666666666667
 70
     32
  0
VERTEX
  8
MY3DLAYER
10
1.09267878742758
20
2.10589520437117
30
0.0
 70
     32
  0
SEQEND
  0
POLYLINE
 8
Group#1
 66
     1
70
    8
 10
0.0
 20
 0.0
 30
0.0
  0
VERTEX
  8
MY3DLAYER
10
1.0985088878802
20
2.0951364893037
30
0.0
 70
     32
  0
VERTEX
  8
MY3DLAYER
10
1.09267878742758
20
2.10589520437117
30
0.0
 70
     32
  0
VERTEX
  8
MY3DLAYER
10
1.09267878742758
20
2.10589520437117
30
0.0416666666666667
 70
     32
  0
VERTEX
  8
MY3DLAYER
10
1.0985088878802
20
2.0951364893037
30
0.0416666666666667
 70
     32
  0
VERTEX
  8
MY3DLAYER
10
1.0985088878802
20
2.0951364893037
30
0.0
 70
     32
  0
SEQEND
  0
POLYLINE
 8
Group#1
 66
     1
70
    8
 10
0.0
 20
 0.0
 30
0.0
  0
VERTEX
  8
MY3DLAYER
10
1.1906846003407
20
2.90137337480092
30
0.0
 70
     32
  0
VERTEX
  8
MY3DLAYER
10
1.18037964084698
20
2.93233505657532
30
0.0
 70
     32
  0
VERTEX
  8
MY3DLAYER
10
1.18037964084698
20
2.93233505657532
30
0.0416666666666667
 70
     32
  0
VERTEX
  8
MY3DLAYER
10
1.1906846003407
20
2.90137337480092
30
0.0416666666666667
 70
     32
  0
VERTEX
  8
MY3DLAYER
10
1.1906846003407
20
2.90137337480092
30
0.0
 70
     32
  0
SEQEND
  0
POLYLINE
 8
Group#1
 66
     1
70
    8
 10
0.0
 20
 0.0
 30
0.0
  0
VERTEX
  8
MY3DLAYER
10
1.20865189976616
20
2.87413380652566
30
0.0
 70
     32
  0
VERTEX
  8
MY3DLAYER
10
1.1906846003407
20
2.90137337480092
30
0.0
 70
     32
  0
VERTEX
  8
MY3DLAYER
10
1.1906846003407
20
2.90137337480092
30
0.0416666666666667
 70
     32
  0
VERTEX
  8
MY3DLAYER
10
1.20865189976616
20
2.87413380652566
30
0.0416666666666667
 70
     32
  0
VERTEX
  8
MY3DLAYER
10
1.20865189976616
20
2.87413380652566
30
0.0
 70
     32
  0
SEQEND
  0
POLYLINE
 8
Group#1
 66
     1
70
    8
 10
0.0
 20
 0.0
 30
0.0
  0
VERTEX
  8
MY3DLAYER
10
1.34400454362514
20
3.07411619492185
30
0.0
 70
     32
  0
VERTEX
  8
MY3DLAYER
10
1.37318446550262
20
3.05950968652009
30
0.0
 70
     32
  0
VERTEX
  8
MY3DLAYER
10
1.37318446550262
20
3.05950968652009
30
0.0416666666666667
 70
     32
  0
VERTEX
  8
MY3DLAYER
10
1.34400454362514
20
3.07411619492185
30
0.0416666666666667
 70
     32
  0
VERTEX
  8
MY3DLAYER
10
1.34400454362514
20
3.07411619492185
30
0.0
 70
     32
  0
SEQEND
  0
POLYLINE
 8
Group#1
 66
     1
70
    8
 10
0.0
 20
 0.0
 30
0.0
  0
VERTEX
  8
MY3DLAYER
10
1.48697474656835
20
2.74571417089593
30
0.0
 70
     32
  0
VERTEX
  8
MY3DLAYER
10
1.47510191511604
20
2.74275175726923
30
0.0
 70
     32
  0
VERTEX
  8
MY3DLAYER
10
1.47510191511604
20
2.74275175726923
30
0.0416666666666667
 70
     32
  0
VERTEX
  8
MY3DLAYER
10
1.48697474656835
20
2.74571417089593
30
0.0416666666666667
 70
     32
  0
VERTEX
  8
MY3DLAYER
10
1.48697474656835
20
2.74571417089593
30
0.0
 70
     32
  0
SEQEND
  0
POLYLINE
 8
Group#1
 66
     1
70
    8
 10
0.0
 20
 0.0
 30
0.0
  0
VERTEX
  8
MY3DLAYER
10
1.49767629203326
20
2.75164855762525
30
0.0
 70
     32
  0
VERTEX
  8
MY3DLAYER
10
1.48697474656835
20
2.74571417089593
30
0.0
 70
     32
  0
VERTEX
  8
MY3DLAYER
10
1.48697474656835
20
2.74571417089593
30
0.0416666666666667
 70
     32
  0
VERTEX
  8
MY3DLAYER
10
1.49767629203326
20
2.75164855762525
30
0.0416666666666667
 70
     32
  0
VERTEX
  8
MY3DLAYER
10
1.49767629203326
20
2.75164855762525
30
0.0
 70
     32
  0
SEQEND
  0
POLYLINE
 8
Group#1
 66
     1
70
    8
 10
0.0
 20
 0.0
 30
0.0
  0
VERTEX
  8
MY3DLAYER
10
1.50647725887246
20
2.76015049880864
30
0.0
 70
     32
  0
VERTEX
  8
MY3DLAYER
10
1.49767629203326
20
2.75164855762525
30
0.0
 70
     32
  0
VERTEX
  8
MY3DLAYER
10
1.49767629203326
20
2.75164855762525
30
0.0416666666666667
 70
     32
  0
VERTEX
  8
MY3DLAYER
10
1.50647725887246
20
2.76015049880864
30
0.0416666666666667
 70
     32
  0
VERTEX
  8
MY3DLAYER
10
1.50647725887246
20
2.76015049880864
30
0.0
 70
     32
  0
SEQEND
  0
POLYLINE
 8
Group#1
 66
     1
70
    8
 10
0.0
 20
 0.0
 30
0.0
  0
VERTEX
  8
MY3DLAYER
10
1.51636020907806
20
2.79463898526749
30
0.0
 70
     32
  0
VERTEX
  8
MY3DLAYER
10
1.51614876600908
20
2.78240398167047
30
0.0
 70
     32
  0
VERTEX
  8
MY3DLAYER
10
1.51614876600908
20
2.78240398167047
30
0.0416666666666667
 70
     32
  0
VERTEX
  8
MY3DLAYER
10
1.51636020907806
20
2.79463898526749
30
0.0416666666666667
 70
     32
  0
VERTEX
  8
MY3DLAYER
10
1.51636020907806
20
2.79463898526749
30
0.0
 70
     32
  0
SEQEND
  0
POLYLINE
 8
Group#1
 66
     1
70
    8
 10
0.0
 20
 0.0
 30
0.0
  0
VERTEX
  8
MY3DLAYER
10
1.51339779545137
20
2.80651181671981
30
0.0
 70
     32
  0
VERTEX
  8
MY3DLAYER
10
1.51636020907806
20
2.79463898526749
30
0.0
 70
     32
  0
VERTEX
  8
MY3DLAYER
10
1.51636020907806
20
2.79463898526749
30
0.0416666666666667
 70
     32
  0
VERTEX
  8
MY3DLAYER
10
1.51339779545137
20
2.80651181671981
30
0.0416666666666667
 70
     32
  0
VERTEX
  8
MY3DLAYER
10
1.51339779545137
20
2.80651181671981
30
0.0
 70
     32
  0
SEQEND
  0
POLYLINE
 8
Group#1
 66
     1
70
    8
 10
0.0
 20
 0.0
 30
0.0
  0
VERTEX
  8
MY3DLAYER
10
1.50746340872204
20
2.81721336218471
30
0.0
 70
     32
  0
VERTEX
  8
MY3DLAYER
10
1.51339779545137
20
2.80651181671981
30
0.0
 70
     32
  0
VERTEX
  8
MY3DLAYER
10
1.51339779545137
20
2.80651181671981
30
0.0416666666666667
 70
     32
  0
VERTEX
  8
MY3DLAYER
10
1.50746340872204
20
2.81721336218471
30
0.0416666666666667
 70
     32
  0
VERTEX
  8
MY3DLAYER
10
1.50746340872204
20
2.81721336218471
30
0.0
 70
     32
  0
SEQEND
  0
POLYLINE
 8
Group#1
 66
     1
70
    8
 10
0.0
 20
 0.0
 30
0.0
  0
VERTEX
  8
MY3DLAYER
10
1.49896146753865
20
2.82601432902392
30
0.0
 70
     32
  0
VERTEX
  8
MY3DLAYER
10
1.50746340872204
20
2.81721336218471
30
0.0
 70
     32
  0
VERTEX
  8
MY3DLAYER
10
1.50746340872204
20
2.81721336218471
30
0.0416666666666667
 70
     32
  0
VERTEX
  8
MY3DLAYER
10
1.49896146753865
20
2.82601432902392
30
0.0416666666666667
 70
     32
  0
VERTEX
  8
MY3DLAYER
10
1.49896146753865
20
2.82601432902392
30
0.0
 70
     32
  0
SEQEND
  0
POLYLINE
 8
Group#1
 66
     1
70
    8
 10
0.0
 20
 0.0
 30
0.0
  0
VERTEX
  8
MY3DLAYER
10
1.48847136514272
20
2.83231494589162
30
0.0
 70
     32
  0
VERTEX
  8
MY3DLAYER
10
1.49896146753865
20
2.82601432902392
30
0.0
 70
     32
  0
VERTEX
  8
MY3DLAYER
10
1.49896146753865
20
2.82601432902392
30
0.0416666666666667
 70
     32
  0
VERTEX
  8
MY3DLAYER
10
1.48847136514272
20
2.83231494589162
30
0.0416666666666667
 70
     32
  0
VERTEX
  8
MY3DLAYER
10
1.48847136514272
20
2.83231494589162
30
0.0
 70
     32
  0
SEQEND
  0
POLYLINE
 8
Group#1
 66
     1
70
    8
 10
0.0
 20
 0.0
 30
0.0
  0
VERTEX
  8
MY3DLAYER
10
1.18022944210159
20
2.13942049879424
30
0.0
 70
     32
  0
VERTEX
  8
MY3DLAYER
10
1.18307632633833
20
2.12751943702089
30
0.0
 70
     32
  0
VERTEX
  8
MY3DLAYER
10
1.18307632633833
20
2.12751943702089
30
0.0416666666666667
 70
     32
  0
VERTEX
  8
MY3DLAYER
10
1.18022944210159
20
2.13942049879424
30
0.0416666666666667
 70
     32
  0
VERTEX
  8
MY3DLAYER
10
1.18022944210159
20
2.13942049879424
30
0.0
 70
     32
  0
SEQEND
  0
POLYLINE
 8
Group#1
 66
     1
70
    8
 10
0.0
 20
 0.0
 30
0.0
  0
VERTEX
  8
MY3DLAYER
10
1.17439934164897
20
2.15017921386171
30
0.0
 70
     32
  0
VERTEX
  8
MY3DLAYER
10
1.18022944210159
20
2.13942049879424
30
0.0
 70
     32
  0
VERTEX
  8
MY3DLAYER
10
1.18022944210159
20
2.13942049879424
30
0.0416666666666667
 70
     32
  0
VERTEX
  8
MY3DLAYER
10
1.17439934164897
20
2.15017921386171
30
0.0416666666666667
 70
     32
  0
VERTEX
  8
MY3DLAYER
10
1.17439934164897
20
2.15017921386171
30
0.0
 70
     32
  0
SEQEND
  0
POLYLINE
 8
Group#1
 66
     1
70
    8
 10
0.0
 20
 0.0
 30
0.0
  0
VERTEX
  8
MY3DLAYER
10
1.16598333669164
20
2.15906239357107
30
0.0
 70
     32
  0
VERTEX
  8
MY3DLAYER
10
1.17439934164897
20
2.15017921386171
30
0.0
 70
     32
  0
VERTEX
  8
MY3DLAYER
10
1.17439934164897
20
2.15017921386171
30
0.0416666666666667
 70
     32
  0
VERTEX
  8
MY3DLAYER
10
1.16598333669164
20
2.15906239357107
30
0.0416666666666667
 70
     32
  0
VERTEX
  8
MY3DLAYER
10
1.16598333669164
20
2.15906239357107
30
0.0
 70
     32
  0
SEQEND
  0
POLYLINE
 8
Group#1
 66
     1
70
    8
 10
0.0
 20
 0.0
 30
0.0
  0
VERTEX
  8
MY3DLAYER
10
1.15555496405933
20
2.16546466390527
30
0.0
 70
     32
  0
VERTEX
  8
MY3DLAYER
10
1.16598333669164
20
2.15906239357107
30
0.0
 70
     32
  0
VERTEX
  8
MY3DLAYER
10
1.16598333669164
20
2.15906239357107
30
0.0416666666666667
 70
     32
  0
VERTEX
  8
MY3DLAYER
10
1.15555496405933
20
2.16546466390527
30
0.0416666666666667
 70
     32
  0
VERTEX
  8
MY3DLAYER
10
1.15555496405933
20
2.16546466390527
30
0.0
 70
     32
  0
SEQEND
  0
POLYLINE
 8
Group#1
 66
     1
70
    8
 10
0.0
 20
 0.0
 30
0.0
  0
VERTEX
  8
MY3DLAYER
10
1.14382490011322
20
2.1689497207213
30
0.0
 70
     32
  0
VERTEX
  8
MY3DLAYER
10
1.15555496405933
20
2.16546466390527
30
0.0
 70
     32
  0
VERTEX
  8
MY3DLAYER
10
1.15555496405933
20
2.16546466390527
30
0.0416666666666667
 70
     32
  0
VERTEX
  8
MY3DLAYER
10
1.14382490011322
20
2.1689497207213
30
0.0416666666666667
 70
     32
  0
VERTEX
  8
MY3DLAYER
10
1.14382490011322
20
2.1689497207213
30
0.0
 70
     32
  0
SEQEND
  0
POLYLINE
 8
Group#1
 66
     1
70
    8
 10
0.0
 20
 0.0
 30
0.0
  0
VERTEX
  8
MY3DLAYER
10
1.1315925293264
20
2.16928006315645
30
0.0
 70
     32
  0
VERTEX
  8
MY3DLAYER
10
1.14382490011322
20
2.1689497207213
30
0.0
 70
     32
  0
VERTEX
  8
MY3DLAYER
10
1.14382490011322
20
2.1689497207213
30
0.0416666666666667
 70
     32
  0
VERTEX
  8
MY3DLAYER
10
1.1315925293264
20
2.16928006315645
30
0.0416666666666667
 70
     32
  0
VERTEX
  8
MY3DLAYER
10
1.1315925293264
20
2.16928006315645
30
0.0
 70
     32
  0
SEQEND
  0
POLYLINE
 8
Group#1
 66
     1
70
    8
 10
0.0
 20
 0.0
 30
0.0
  0
VERTEX
  8
MY3DLAYER
10
1.11969146755305
20
2.16643317891971
30
0.0
 70
     32
  0
VERTEX
  8
MY3DLAYER
10
1.1315925293264
20
2.16928006315645
30
0.0
 70
     32
  0
VERTEX
  8
MY3DLAYER
10
1.1315925293264
20
2.16928006315645
30
0.0416666666666667
 70
     32
  0
VERTEX
  8
MY3DLAYER
10
1.11969146755305
20
2.16643317891971
30
0.0416666666666667
 70
     32
  0
VERTEX
  8
MY3DLAYER
10
1.11969146755305
20
2.16643317891971
30
0.0
 70
     32
  0
SEQEND
  0
POLYLINE
 8
Group#1
 66
     1
70
    8
 10
0.0
 20
 0.0
 30
0.0
  0
VERTEX
  8
MY3DLAYER
10
1.10893275248558
20
2.16060307846709
30
0.0
 70
     32
  0
VERTEX
  8
MY3DLAYER
10
1.11969146755305
20
2.16643317891971
30
0.0
 70
     32
  0
VERTEX
  8
MY3DLAYER
10
1.11969146755305
20
2.16643317891971
30
0.0416666666666667
 70
     32
  0
VERTEX
  8
MY3DLAYER
10
1.10893275248558
20
2.16060307846709
30
0.0416666666666667
 70
     32
  0
VERTEX
  8
MY3DLAYER
10
1.10893275248558
20
2.16060307846709
30
0.0
 70
     32
  0
SEQEND
  0
POLYLINE
 8
Group#1
 66
     1
70
    8
 10
0.0
 20
 0.0
 30
0.0
  0
VERTEX
  8
MY3DLAYER
10
1.42586192201552
20
2.97964731325676
30
0.0
 70
     32
  0
VERTEX
  8
MY3DLAYER
10
1.42780227561774
20
2.94707350542953
30
0.0
 70
     32
  0
VERTEX
  8
MY3DLAYER
10
1.42780227561774
20
2.94707350542953
30
0.0416666666666667
 70
     32
  0
VERTEX
  8
MY3DLAYER
10
1.42586192201552
20
2.97964731325676
30
0.0416666666666667
 70
     32
  0
VERTEX
  8
MY3DLAYER
10
1.42586192201552
20
2.97964731325676
30
0.0
 70
     32
  0
SEQEND
  0
POLYLINE
 8
Group#1
 66
     1
70
    8
 10
0.0
 20
 0.0
 30
0.0
  0
VERTEX
  8
MY3DLAYER
10
1.42124579143707
20
2.91510742272215
30
0.0
 70
     32
  0
VERTEX
  8
MY3DLAYER
10
1.4066392830353
20
2.88592750084467
30
0.0
 70
     32
  0
VERTEX
  8
MY3DLAYER
10
1.4066392830353
20
2.88592750084467
30
0.0416666666666667
 70
     32
  0
VERTEX
  8
MY3DLAYER
10
1.42124579143707
20
2.91510742272215
30
0.0416666666666667
 70
     32
  0
VERTEX
  8
MY3DLAYER
10
1.42124579143707
20
2.91510742272215
30
0.0
 70
     32
  0
SEQEND
 0
ENDSEC
 0
EOF
