ISO-10303-21;
HEADER;
FILE_DESCRIPTION (( 'STEP AP203' ),
    '1' );
FILE_NAME ('Handle.STEP',
    '2012-06-04T16:29:48',
    ( '' ),
    ( '' ),
    'SwSTEP 2.0',
    'SolidWorks 2010',
    '' );
FILE_SCHEMA (( 'CONFIG_CONTROL_DESIGN' ));
ENDSEC;

DATA;
#1 = ADVANCED_FACE ( 'NONE', ( #44 ), #45, .T. ) ;
#2 = ADVANCED_FACE ( 'NONE', ( #65 ), #120, .F. ) ;
#3 = ADVANCED_FACE ( 'NONE', ( #47 ), #117, .T. ) ;
#4 = ADVANCED_FACE ( 'NONE', ( #50 ), #46, .T. ) ;
#5 = APPROVAL_PERSON_ORGANIZATION ( #174, #88, #142 ) ;
#6 =( GEOMETRIC_REPRESENTATION_CONTEXT ( 3 ) GLOBAL_UNCERTAINTY_ASSIGNED_CONTEXT ( ( #169 ) ) GLOBAL_UNIT_ASSIGNED_CONTEXT ( ( #133, #140, #139 ) ) REPRESENTATION_CONTEXT ( 'NONE', 'WORKASPACE' ) );
#7 = SHAPE_DEFINITION_REPRESENTATION ( #173, #168 ) ;
#8 = ORGANIZATION ( 'UNSPECIFIED', 'UNSPECIFIED', '' ) ;
#9 = CIRCLE ( 'NONE', #86, 15.90000000000000000 ) ;
#10 = CIRCLE ( 'NONE', #74, 15.90000000000000000 ) ;
#11 = COORDINATED_UNIVERSAL_TIME_OFFSET ( 6, 0, .BEHIND. ) ;
#12 = LOCAL_TIME ( 11, 29, 48.00000000000000000, #11 ) ;
#13 = CALENDAR_DATE ( 2012, 4, 6 ) ;
#14 = DATE_AND_TIME ( #13, #12 ) ;
#15 = APPROVAL_DATE_TIME ( #14, #88 ) ;
#16 = PERSON_AND_ORGANIZATION ( #170, #8 ) ;
#17 = COORDINATED_UNIVERSAL_TIME_OFFSET ( 6, 0, .BEHIND. ) ;
#18 = LOCAL_TIME ( 11, 29, 48.00000000000000000, #17 ) ;
#19 = CALENDAR_DATE ( 2012, 4, 6 ) ;
#20 = DATE_AND_TIME ( #19, #18 ) ;
#21 = PERSON_AND_ORGANIZATION ( #170, #8 ) ;
#22 = APPROVAL_PERSON_ORGANIZATION ( #21, #93, #159 ) ;
#23 = COORDINATED_UNIVERSAL_TIME_OFFSET ( 6, 0, .BEHIND. ) ;
#24 = LOCAL_TIME ( 11, 29, 48.00000000000000000, #23 ) ;
#25 = CALENDAR_DATE ( 2012, 4, 6 ) ;
#26 = DATE_AND_TIME ( #25, #24 ) ;
#27 = APPROVAL_DATE_TIME ( #26, #93 ) ;
#28 = PERSON_AND_ORGANIZATION ( #170, #8 ) ;
#29 = PERSON_AND_ORGANIZATION ( #170, #8 ) ;
#30 = PERSON_AND_ORGANIZATION ( #170, #8 ) ;
#31 = COORDINATED_UNIVERSAL_TIME_OFFSET ( 6, 0, .BEHIND. ) ;
#32 = LOCAL_TIME ( 11, 29, 48.00000000000000000, #31 ) ;
#33 = CALENDAR_DATE ( 2012, 4, 6 ) ;
#34 = DATE_AND_TIME ( #33, #32 ) ;
#35 = PERSON_AND_ORGANIZATION ( #170, #8 ) ;
#36 = APPROVAL_PERSON_ORGANIZATION ( #35, #100, #166 ) ;
#37 = COORDINATED_UNIVERSAL_TIME_OFFSET ( 6, 0, .BEHIND. ) ;
#38 = LOCAL_TIME ( 11, 29, 48.00000000000000000, #37 ) ;
#39 = CALENDAR_DATE ( 2012, 4, 6 ) ;
#40 = DATE_AND_TIME ( #39, #38 ) ;
#41 = APPROVAL_DATE_TIME ( #40, #100 ) ;
#42 = ORIENTED_EDGE ( 'NONE', *, *, #85, .T. ) ;
#43 = VECTOR ( 'NONE', #132, 1000.000000000000000 ) ;
#44 = FACE_OUTER_BOUND ( 'NONE', #66, .T. ) ;
#45 = CYLINDRICAL_SURFACE ( 'NONE', #81, 15.90000000000000000 ) ;
#46 = CYLINDRICAL_SURFACE ( 'NONE', #84, 15.90000000000000000 ) ;
#47 = FACE_OUTER_BOUND ( 'NONE', #63, .T. ) ;
#48 = ORIENTED_EDGE ( 'NONE', *, *, #85, .F. ) ;
#49 = ORIENTED_EDGE ( 'NONE', *, *, #79, .F. ) ;
#50 = FACE_OUTER_BOUND ( 'NONE', #67, .T. ) ;
#51 = ORIENTED_EDGE ( 'NONE', *, *, #80, .F. ) ;
#52 = EDGE_LOOP ( 'NONE', ( #69, #48 ) ) ;
#53 = ORIENTED_EDGE ( 'NONE', *, *, #79, .T. ) ;
#54 = VECTOR ( 'NONE', #125, 1000.000000000000000 ) ;
#55 = ORIENTED_EDGE ( 'NONE', *, *, #80, .T. ) ;
#56 = ORIENTED_EDGE ( 'NONE', *, *, #73, .T. ) ;
#57 = ORIENTED_EDGE ( 'NONE', *, *, #76, .T. ) ;
#58 = CIRCLE ( 'NONE', #75, 15.90000000000000000 ) ;
#59 = LINE ( 'NONE', #105, #43 ) ;
#60 = ORIENTED_EDGE ( 'NONE', *, *, #76, .F. ) ;
#61 = ORIENTED_EDGE ( 'NONE', *, *, #73, .F. ) ;
#62 = CIRCLE ( 'NONE', #77, 15.90000000000000000 ) ;
#63 = EDGE_LOOP ( 'NONE', ( #55, #57 ) ) ;
#64 = LINE ( 'NONE', #122, #54 ) ;
#65 = FACE_OUTER_BOUND ( 'NONE', #52, .T. ) ;
#66 = EDGE_LOOP ( 'NONE', ( #61, #51, #53, #70 ) ) ;
#67 = EDGE_LOOP ( 'NONE', ( #60, #56, #42, #49 ) ) ;
#68 = CLOSED_SHELL ( 'NONE', ( #4, #1, #3, #2 ) ) ;
#69 = ORIENTED_EDGE ( 'NONE', *, *, #78, .F. ) ;
#70 = ORIENTED_EDGE ( 'NONE', *, *, #78, .T. ) ;
#71 = CC_DESIGN_PERSON_AND_ORGANIZATION_ASSIGNMENT ( #175, #157, ( #171 ) ) ;
#72 = AXIS2_PLACEMENT_3D ( 'NONE', #152, #147, #148 ) ;
#73 = EDGE_CURVE ( 'NONE', #106, #112, #64, .T. ) ;
#74 = AXIS2_PLACEMENT_3D ( 'NONE', #124, #150, #145 ) ;
#75 = AXIS2_PLACEMENT_3D ( 'NONE', #128, #129, #130 ) ;
#76 = EDGE_CURVE ( 'NONE', #106, #115, #62, .T. ) ;
#77 = AXIS2_PLACEMENT_3D ( 'NONE', #123, #126, #127 ) ;
#78 = EDGE_CURVE ( 'NONE', #146, #112, #58, .T. ) ;
#79 = EDGE_CURVE ( 'NONE', #115, #146, #59, .T. ) ;
#80 = EDGE_CURVE ( 'NONE', #115, #106, #9, .T. ) ;
#81 = AXIS2_PLACEMENT_3D ( 'NONE', #110, #104, #113 ) ;
#82 = AXIS2_PLACEMENT_3D ( 'NONE', #111, #108, #107 ) ;
#83 = AXIS2_PLACEMENT_3D ( 'NONE', #121, #109, #116 ) ;
#84 = AXIS2_PLACEMENT_3D ( 'NONE', #118, #119, #114 ) ;
#85 = EDGE_CURVE ( 'NONE', #112, #146, #10, .T. ) ;
#86 = AXIS2_PLACEMENT_3D ( 'NONE', #131, #134, #135 ) ;
#87 = PRODUCT_DEFINITION ( 'UNKNOWN', '', #92, #172 ) ;
#88 = APPROVAL ( #154, 'UNSPECIFIED' ) ;
#89 = CC_DESIGN_APPROVAL ( #88, ( #87 ) ) ;
#90 = CC_DESIGN_PERSON_AND_ORGANIZATION_ASSIGNMENT ( #16, #141, ( #87 ) ) ;
#91 = CC_DESIGN_DATE_AND_TIME_ASSIGNMENT ( #20, #151, ( #87 ) ) ;
#92 = PRODUCT_DEFINITION_FORMATION_WITH_SPECIFIED_SOURCE ( 'ANY', '', #171, .NOT_KNOWN. ) ;
#93 = APPROVAL ( #144, 'UNSPECIFIED' ) ;
#94 = CC_DESIGN_APPROVAL ( #93, ( #92 ) ) ;
#95 = CC_DESIGN_PERSON_AND_ORGANIZATION_ASSIGNMENT ( #28, #160, ( #92 ) ) ;
#96 = CC_DESIGN_PERSON_AND_ORGANIZATION_ASSIGNMENT ( #29, #161, ( #92 ) ) ;
#97 = SECURITY_CLASSIFICATION ( '', '', #162 ) ;
#98 = CC_DESIGN_PERSON_AND_ORGANIZATION_ASSIGNMENT ( #30, #163, ( #97 ) ) ;
#99 = CC_DESIGN_DATE_AND_TIME_ASSIGNMENT ( #34, #164, ( #97 ) ) ;
#100 = APPROVAL ( #165, 'UNSPECIFIED' ) ;
#101 = CC_DESIGN_APPROVAL ( #100, ( #97 ) ) ;
#102 = CC_DESIGN_SECURITY_CLASSIFICATION ( #97, ( #92 ) ) ;
#103 = PRODUCT_RELATED_PRODUCT_CATEGORY ( 'detail', '', ( #171 ) ) ;
#104 = DIRECTION ( 'NONE',  ( -0.0000000000000000000, -0.0000000000000000000, -1.000000000000000000 ) ) ;
#105 = CARTESIAN_POINT ( 'NONE',  ( -15.90000000000000000, 0.0000000000000000000, 300.0000000000000000 ) ) ;
#106 = VERTEX_POINT ( 'NONE', #136 ) ;
#107 = DIRECTION ( 'NONE',  ( 1.000000000000000000, 0.0000000000000000000, -0.0000000000000000000 ) ) ;
#108 = DIRECTION ( 'NONE',  ( 0.0000000000000000000, 0.0000000000000000000, 1.000000000000000000 ) ) ;
#109 = DIRECTION ( 'NONE',  ( 0.0000000000000000000, 0.0000000000000000000, 1.000000000000000000 ) ) ;
#110 = CARTESIAN_POINT ( 'NONE',  ( 0.0000000000000000000, 0.0000000000000000000, 300.0000000000000000 ) ) ;
#111 = CARTESIAN_POINT ( 'NONE',  ( 0.0000000000000000000, 0.0000000000000000000, 0.0000000000000000000 ) ) ;
#112 = VERTEX_POINT ( 'NONE', #137 ) ;
#113 = DIRECTION ( 'NONE',  ( -1.000000000000000000, 0.0000000000000000000, 0.0000000000000000000 ) ) ;
#114 = DIRECTION ( 'NONE',  ( -1.000000000000000000, 0.0000000000000000000, 0.0000000000000000000 ) ) ;
#115 = VERTEX_POINT ( 'NONE', #143 ) ;
#116 = DIRECTION ( 'NONE',  ( 1.000000000000000000, 0.0000000000000000000, -0.0000000000000000000 ) ) ;
#117 = PLANE ( 'NONE',  #83 ) ;
#118 = CARTESIAN_POINT ( 'NONE',  ( 0.0000000000000000000, 0.0000000000000000000, 300.0000000000000000 ) ) ;
#119 = DIRECTION ( 'NONE',  ( -0.0000000000000000000, -0.0000000000000000000, -1.000000000000000000 ) ) ;
#120 = PLANE ( 'NONE',  #82 ) ;
#121 = CARTESIAN_POINT ( 'NONE',  ( 0.0000000000000000000, 0.0000000000000000000, 300.0000000000000000 ) ) ;
#122 = CARTESIAN_POINT ( 'NONE',  ( 15.90000000000000000, 1.947188410644291800E-015, 300.0000000000000000 ) ) ;
#123 = CARTESIAN_POINT ( 'NONE',  ( 0.0000000000000000000, 0.0000000000000000000, 300.0000000000000000 ) ) ;
#124 = CARTESIAN_POINT ( 'NONE',  ( 0.0000000000000000000, 0.0000000000000000000, 0.0000000000000000000 ) ) ;
#125 = DIRECTION ( 'NONE',  ( -0.0000000000000000000, -0.0000000000000000000, -1.000000000000000000 ) ) ;
#126 = DIRECTION ( 'NONE',  ( 0.0000000000000000000, 0.0000000000000000000, 1.000000000000000000 ) ) ;
#127 = DIRECTION ( 'NONE',  ( 1.000000000000000000, 0.0000000000000000000, 0.0000000000000000000 ) ) ;
#128 = CARTESIAN_POINT ( 'NONE',  ( 0.0000000000000000000, 0.0000000000000000000, 0.0000000000000000000 ) ) ;
#129 = DIRECTION ( 'NONE',  ( 0.0000000000000000000, 0.0000000000000000000, 1.000000000000000000 ) ) ;
#130 = DIRECTION ( 'NONE',  ( 1.000000000000000000, 0.0000000000000000000, 0.0000000000000000000 ) ) ;
#131 = CARTESIAN_POINT ( 'NONE',  ( 0.0000000000000000000, 0.0000000000000000000, 300.0000000000000000 ) ) ;
#132 = DIRECTION ( 'NONE',  ( -0.0000000000000000000, -0.0000000000000000000, -1.000000000000000000 ) ) ;
#133 =( LENGTH_UNIT ( ) NAMED_UNIT ( * ) SI_UNIT ( .MILLI., .METRE. ) );
#134 = DIRECTION ( 'NONE',  ( 0.0000000000000000000, 0.0000000000000000000, 1.000000000000000000 ) ) ;
#135 = DIRECTION ( 'NONE',  ( 1.000000000000000000, 0.0000000000000000000, 0.0000000000000000000 ) ) ;
#136 = CARTESIAN_POINT ( 'NONE',  ( 15.90000000000000000, 1.947188410644291800E-015, 300.0000000000000000 ) ) ;
#137 = CARTESIAN_POINT ( 'NONE',  ( 15.90000000000000000, 1.947188410644291800E-015, 0.0000000000000000000 ) ) ;
#138 = CARTESIAN_POINT ( 'NONE',  ( -15.90000000000000000, 0.0000000000000000000, 0.0000000000000000000 ) ) ;
#139 =( NAMED_UNIT ( * ) SI_UNIT ( $, .STERADIAN. ) SOLID_ANGLE_UNIT ( ) );
#140 =( NAMED_UNIT ( * ) PLANE_ANGLE_UNIT ( ) SI_UNIT ( $, .RADIAN. ) );
#141 = PERSON_AND_ORGANIZATION_ROLE ( 'creator' ) ;
#142 = APPROVAL_ROLE ( '' ) ;
#143 = CARTESIAN_POINT ( 'NONE',  ( -15.90000000000000000, 0.0000000000000000000, 300.0000000000000000 ) ) ;
#144 = APPROVAL_STATUS ( 'not_yet_approved' ) ;
#145 = DIRECTION ( 'NONE',  ( 1.000000000000000000, 0.0000000000000000000, 0.0000000000000000000 ) ) ;
#146 = VERTEX_POINT ( 'NONE', #138 ) ;
#147 = DIRECTION ( 'NONE',  ( 0.0000000000000000000, 0.0000000000000000000, 1.000000000000000000 ) ) ;
#148 = DIRECTION ( 'NONE',  ( 1.000000000000000000, 0.0000000000000000000, 0.0000000000000000000 ) ) ;
#149 = APPLICATION_PROTOCOL_DEFINITION ( 'international standard', 'config_control_design', 1994, #153 ) ;
#150 = DIRECTION ( 'NONE',  ( 0.0000000000000000000, 0.0000000000000000000, 1.000000000000000000 ) ) ;
#151 = DATE_TIME_ROLE ( 'creation_date' ) ;
#152 = CARTESIAN_POINT ( 'NONE',  ( 0.0000000000000000000, 0.0000000000000000000, 0.0000000000000000000 ) ) ;
#153 = APPLICATION_CONTEXT ( 'configuration controlled 3d designs of mechanical parts and assemblies' ) ;
#154 = APPROVAL_STATUS ( 'not_yet_approved' ) ;
#155 = APPLICATION_PROTOCOL_DEFINITION ( 'international standard', 'config_control_design', 1994, #156 ) ;
#156 = APPLICATION_CONTEXT ( 'configuration controlled 3d designs of mechanical parts and assemblies' ) ;
#157 = PERSON_AND_ORGANIZATION_ROLE ( 'design_owner' ) ;
#158 = MECHANICAL_CONTEXT ( 'NONE', #153, 'mechanical' ) ;
#159 = APPROVAL_ROLE ( '' ) ;
#160 = PERSON_AND_ORGANIZATION_ROLE ( 'creator' ) ;
#161 = PERSON_AND_ORGANIZATION_ROLE ( 'design_supplier' ) ;
#162 = SECURITY_CLASSIFICATION_LEVEL ( 'unclassified' ) ;
#163 = PERSON_AND_ORGANIZATION_ROLE ( 'classification_officer' ) ;
#164 = DATE_TIME_ROLE ( 'classification_date' ) ;
#165 = APPROVAL_STATUS ( 'not_yet_approved' ) ;
#166 = APPROVAL_ROLE ( '' ) ;
#167 = MANIFOLD_SOLID_BREP ( 'Boss-Extrude1', #68 ) ;
#168 = ADVANCED_BREP_SHAPE_REPRESENTATION ( 'Handle', ( #167, #72 ), #6 ) ;
#169 = UNCERTAINTY_MEASURE_WITH_UNIT (LENGTH_MEASURE( 1.000000000000000100E-005 ), #133, 'distance_accuracy_value', 'NONE');
#170 = PERSON ( 'UNSPECIFIED', 'UNSPECIFIED', 'UNSPECIFIED', ('UNSPECIFIED'), ('UNSPECIFIED'), ('UNSPECIFIED') ) ;
#171 = PRODUCT ( 'Handle', 'Handle', '', ( #158 ) ) ;
#172 = DESIGN_CONTEXT ( 'detailed design', #156, 'design' ) ;
#173 = PRODUCT_DEFINITION_SHAPE ( 'NONE', 'NONE',  #87 ) ;
#174 = PERSON_AND_ORGANIZATION ( #170, #8 ) ;
#175 = PERSON_AND_ORGANIZATION ( #170, #8 ) ;
ENDSEC;
END-ISO-10303-21;
