ISO-10303-21;
HEADER;
FILE_DESCRIPTION (( 'STEP AP203' ),
    '1' );
FILE_NAME ('ThreadedRod.STEP',
    '2012-05-21T19:42:08',
    ( '' ),
    ( '' ),
    'SwSTEP 2.0',
    'SolidWorks 2010',
    '' );
FILE_SCHEMA (( 'CONFIG_CONTROL_DESIGN' ));
ENDSEC;

DATA;
#1 = CARTESIAN_POINT ( 'NONE',  ( 0.0000000000000000000, 0.0000000000000000000, 350.0000000000000000 ) ) ;
#2 = PLANE ( 'NONE',  #154 ) ;
#3 = CARTESIAN_POINT ( 'NONE',  ( 0.0000000000000000000, 0.0000000000000000000, 0.0000000000000000000 ) ) ;
#4 = DIRECTION ( 'NONE',  ( 0.0000000000000000000, 0.0000000000000000000, 1.000000000000000000 ) ) ;
#5 = DIRECTION ( 'NONE',  ( 1.000000000000000000, 0.0000000000000000000, -0.0000000000000000000 ) ) ;
#6 = CARTESIAN_POINT ( 'NONE',  ( -6.000000000000000900, 0.0000000000000000000, 350.0000000000000000 ) ) ;
#7 = CARTESIAN_POINT ( 'NONE',  ( -6.000000000000000900, 0.0000000000000000000, 0.0000000000000000000 ) ) ;
#8 = DIRECTION ( 'NONE',  ( 0.0000000000000000000, 0.0000000000000000000, 1.000000000000000000 ) ) ;
#9 = DIRECTION ( 'NONE',  ( 1.000000000000000000, 0.0000000000000000000, -0.0000000000000000000 ) ) ;
#10 = DIRECTION ( 'NONE',  ( 1.000000000000000000, 0.0000000000000000000, 0.0000000000000000000 ) ) ;
#11 = CARTESIAN_POINT ( 'NONE',  ( 0.0000000000000000000, 0.0000000000000000000, 0.0000000000000000000 ) ) ;
#12 = DIRECTION ( 'NONE',  ( 0.0000000000000000000, 0.0000000000000000000, 1.000000000000000000 ) ) ;
#13 = DIRECTION ( 'NONE',  ( 1.000000000000000000, 0.0000000000000000000, 0.0000000000000000000 ) ) ;
#14 = CARTESIAN_POINT ( 'NONE',  ( 6.000000000000000900, 7.347880794884120700E-016, 350.0000000000000000 ) ) ;
#15 = DIRECTION ( 'NONE',  ( 0.0000000000000000000, 0.0000000000000000000, 1.000000000000000000 ) ) ;
#16 = DIRECTION ( 'NONE',  ( 1.000000000000000000, 0.0000000000000000000, 0.0000000000000000000 ) ) ;
#17 =( LENGTH_UNIT ( ) NAMED_UNIT ( * ) SI_UNIT ( .MILLI., .METRE. ) );
#18 = CARTESIAN_POINT ( 'NONE',  ( -6.000000000000000900, 0.0000000000000000000, 350.0000000000000000 ) ) ;
#19 = DIRECTION ( 'NONE',  ( -0.0000000000000000000, -0.0000000000000000000, -1.000000000000000000 ) ) ;
#20 =( NAMED_UNIT ( * ) PLANE_ANGLE_UNIT ( ) SI_UNIT ( $, .RADIAN. ) );
#21 =( NAMED_UNIT ( * ) SI_UNIT ( $, .STERADIAN. ) SOLID_ANGLE_UNIT ( ) );
#22 = CARTESIAN_POINT ( 'NONE',  ( 0.0000000000000000000, 0.0000000000000000000, 0.0000000000000000000 ) ) ;
#23 = DIRECTION ( 'NONE',  ( 0.0000000000000000000, 0.0000000000000000000, 1.000000000000000000 ) ) ;
#24 = DIRECTION ( 'NONE',  ( 1.000000000000000000, 0.0000000000000000000, 0.0000000000000000000 ) ) ;
#25 = APPLICATION_CONTEXT ( 'configuration controlled 3d designs of mechanical parts and assemblies' ) ;
#26 = ADVANCED_FACE ( 'NONE', ( #131 ), #100, .T. ) ;
#27 = ADVANCED_FACE ( 'NONE', ( #138 ), #103, .T. ) ;
#28 = ADVANCED_FACE ( 'NONE', ( #97 ), #67, .F. ) ;
#29 = ADVANCED_FACE ( 'NONE', ( #102 ), #2, .T. ) ;
#30 = DATE_AND_TIME ( #45, #31 ) ;
#31 = LOCAL_TIME ( 14, 42, 8.000000000000000000, #32 ) ;
#32 = COORDINATED_UNIVERSAL_TIME_OFFSET ( 6, 0, .BEHIND. ) ;
#33 = APPROVAL_PERSON_ORGANIZATION ( #35, #161, #95 ) ;
#34 = LOCAL_TIME ( 14, 42, 8.000000000000000000, #47 ) ;
#35 = PERSON_AND_ORGANIZATION ( #76, #105 ) ;
#36 = COORDINATED_UNIVERSAL_TIME_OFFSET ( 6, 0, .BEHIND. ) ;
#37 = PERSON_AND_ORGANIZATION ( #76, #105 ) ;
#38 = APPROVAL_PERSON_ORGANIZATION ( #39, #140, #88 ) ;
#39 = PERSON_AND_ORGANIZATION ( #76, #105 ) ;
#40 = DATE_AND_TIME ( #41, #46 ) ;
#41 = CALENDAR_DATE ( 2012, 21, 5 ) ;
#42 = APPROVAL_DATE_TIME ( #30, #161 ) ;
#43 = COORDINATED_UNIVERSAL_TIME_OFFSET ( 6, 0, .BEHIND. ) ;
#44 = APPROVAL_DATE_TIME ( #40, #140 ) ;
#45 = CALENDAR_DATE ( 2012, 21, 5 ) ;
#46 = LOCAL_TIME ( 14, 42, 8.000000000000000000, #43 ) ;
#47 = COORDINATED_UNIVERSAL_TIME_OFFSET ( 6, 0, .BEHIND. ) ;
#48 = PERSON_AND_ORGANIZATION ( #76, #105 ) ;
#49 = DATE_AND_TIME ( #53, #34 ) ;
#50 = CALENDAR_DATE ( 2012, 21, 5 ) ;
#51 = LOCAL_TIME ( 14, 42, 8.000000000000000000, #36 ) ;
#52 = PERSON_AND_ORGANIZATION ( #76, #105 ) ;
#53 = CALENDAR_DATE ( 2012, 21, 5 ) ;
#54 = DATE_AND_TIME ( #50, #51 ) ;
#55 = DESIGN_CONTEXT ( 'detailed design', #81, 'design' ) ;
#56 = PRODUCT_DEFINITION_SHAPE ( 'NONE', 'NONE',  #146 ) ;
#57 = ADVANCED_BREP_SHAPE_REPRESENTATION ( 'ThreadedRod', ( #58, #139 ), #110 ) ;
#58 = MANIFOLD_SOLID_BREP ( 'Boss-Extrude1', #106 ) ;
#59 = UNCERTAINTY_MEASURE_WITH_UNIT (LENGTH_MEASURE( 1.000000000000000100E-005 ), #17, 'distance_accuracy_value', 'NONE');
#60 = VERTEX_POINT ( 'NONE', #7 ) ;
#61 = DIRECTION ( 'NONE',  ( -1.000000000000000000, 0.0000000000000000000, 0.0000000000000000000 ) ) ;
#62 = VERTEX_POINT ( 'NONE', #6 ) ;
#63 = VERTEX_POINT ( 'NONE', #174 ) ;
#64 = DIRECTION ( 'NONE',  ( -1.000000000000000000, 0.0000000000000000000, 0.0000000000000000000 ) ) ;
#65 = DIRECTION ( 'NONE',  ( -0.0000000000000000000, -0.0000000000000000000, -1.000000000000000000 ) ) ;
#66 = CARTESIAN_POINT ( 'NONE',  ( 0.0000000000000000000, 0.0000000000000000000, 350.0000000000000000 ) ) ;
#67 = PLANE ( 'NONE',  #141 ) ;
#68 = CARTESIAN_POINT ( 'NONE',  ( 0.0000000000000000000, 0.0000000000000000000, 0.0000000000000000000 ) ) ;
#69 = CARTESIAN_POINT ( 'NONE',  ( 6.000000000000000900, 7.347880794884120700E-016, 350.0000000000000000 ) ) ;
#70 = CARTESIAN_POINT ( 'NONE',  ( 0.0000000000000000000, 0.0000000000000000000, 350.0000000000000000 ) ) ;
#71 = DIRECTION ( 'NONE',  ( -0.0000000000000000000, -0.0000000000000000000, -1.000000000000000000 ) ) ;
#72 = DIRECTION ( 'NONE',  ( 0.0000000000000000000, 0.0000000000000000000, 1.000000000000000000 ) ) ;
#73 = DIRECTION ( 'NONE',  ( 1.000000000000000000, 0.0000000000000000000, 0.0000000000000000000 ) ) ;
#74 = CARTESIAN_POINT ( 'NONE',  ( 0.0000000000000000000, 0.0000000000000000000, 350.0000000000000000 ) ) ;
#75 = DIRECTION ( 'NONE',  ( 0.0000000000000000000, 0.0000000000000000000, 1.000000000000000000 ) ) ;
#76 = PERSON ( 'UNSPECIFIED', 'UNSPECIFIED', 'UNSPECIFIED', ('UNSPECIFIED'), ('UNSPECIFIED'), ('UNSPECIFIED') ) ;
#77 = PRODUCT ( 'ThreadedRod', 'ThreadedRod', '', ( #79 ) ) ;
#78 = APPLICATION_PROTOCOL_DEFINITION ( 'international standard', 'config_control_design', 1994, #25 ) ;
#79 = MECHANICAL_CONTEXT ( 'NONE', #25, 'mechanical' ) ;
#80 = PERSON_AND_ORGANIZATION_ROLE ( 'design_owner' ) ;
#81 = APPLICATION_CONTEXT ( 'configuration controlled 3d designs of mechanical parts and assemblies' ) ;
#82 = APPLICATION_PROTOCOL_DEFINITION ( 'international standard', 'config_control_design', 1994, #81 ) ;
#83 = APPROVAL_STATUS ( 'not_yet_approved' ) ;
#84 = APPROVAL_ROLE ( '' ) ;
#85 = PERSON_AND_ORGANIZATION_ROLE ( 'creator' ) ;
#86 = DATE_TIME_ROLE ( 'creation_date' ) ;
#87 = APPROVAL_STATUS ( 'not_yet_approved' ) ;
#88 = APPROVAL_ROLE ( '' ) ;
#89 = PERSON_AND_ORGANIZATION_ROLE ( 'creator' ) ;
#90 = PERSON_AND_ORGANIZATION_ROLE ( 'design_supplier' ) ;
#91 = SECURITY_CLASSIFICATION_LEVEL ( 'unclassified' ) ;
#92 = PERSON_AND_ORGANIZATION_ROLE ( 'classification_officer' ) ;
#93 = DATE_TIME_ROLE ( 'classification_date' ) ;
#94 = APPROVAL_STATUS ( 'not_yet_approved' ) ;
#95 = APPROVAL_ROLE ( '' ) ;
#96 = ORIENTED_EDGE ( 'NONE', *, *, #151, .F. ) ;
#97 = FACE_OUTER_BOUND ( 'NONE', #98, .T. ) ;
#98 = EDGE_LOOP ( 'NONE', ( #96, #108 ) ) ;
#99 = ORIENTED_EDGE ( 'NONE', *, *, #151, .T. ) ;
#100 = CYLINDRICAL_SURFACE ( 'NONE', #142, 6.000000000000000900 ) ;
#101 = ORIENTED_EDGE ( 'NONE', *, *, #170, .T. ) ;
#102 = FACE_OUTER_BOUND ( 'NONE', #119, .T. ) ;
#103 = CYLINDRICAL_SURFACE ( 'NONE', #149, 6.000000000000000900 ) ;
#104 = ORIENTED_EDGE ( 'NONE', *, *, #148, .T. ) ;
#105 = ORGANIZATION ( 'UNSPECIFIED', 'UNSPECIFIED', '' ) ;
#106 = CLOSED_SHELL ( 'NONE', ( #26, #27, #29, #28 ) ) ;
#107 = SHAPE_DEFINITION_REPRESENTATION ( #56, #57 ) ;
#108 = ORIENTED_EDGE ( 'NONE', *, *, #164, .F. ) ;
#109 = COORDINATED_UNIVERSAL_TIME_OFFSET ( 6, 0, .BEHIND. ) ;
#110 =( GEOMETRIC_REPRESENTATION_CONTEXT ( 3 ) GLOBAL_UNCERTAINTY_ASSIGNED_CONTEXT ( ( #59 ) ) GLOBAL_UNIT_ASSIGNED_CONTEXT ( ( #17, #20, #21 ) ) REPRESENTATION_CONTEXT ( 'NONE', 'WORKASPACE' ) );
#111 = ORIENTED_EDGE ( 'NONE', *, *, #148, .F. ) ;
#112 = ORIENTED_EDGE ( 'NONE', *, *, #164, .T. ) ;
#113 = EDGE_LOOP ( 'NONE', ( #111, #132, #101, #99 ) ) ;
#114 = VECTOR ( 'NONE', #71, 1000.000000000000000 ) ;
#115 = ORIENTED_EDGE ( 'NONE', *, *, #170, .F. ) ;
#116 = ORIENTED_EDGE ( 'NONE', *, *, #168, .F. ) ;
#117 = LOCAL_TIME ( 14, 42, 8.000000000000000000, #109 ) ;
#118 = CALENDAR_DATE ( 2012, 21, 5 ) ;
#119 = EDGE_LOOP ( 'NONE', ( #130, #137 ) ) ;
#120 = PERSON_AND_ORGANIZATION ( #76, #105 ) ;
#121 = APPROVAL_PERSON_ORGANIZATION ( #120, #153, #84 ) ;
#122 = PERSON_AND_ORGANIZATION ( #76, #105 ) ;
#123 = CIRCLE ( 'NONE', #145, 6.000000000000000900 ) ;
#124 = VECTOR ( 'NONE', #19, 1000.000000000000000 ) ;
#125 = CIRCLE ( 'NONE', #162, 6.000000000000000900 ) ;
#126 = CIRCLE ( 'NONE', #165, 6.000000000000000900 ) ;
#127 = CIRCLE ( 'NONE', #147, 6.000000000000000900 ) ;
#128 = LINE ( 'NONE', #18, #124 ) ;
#129 = LINE ( 'NONE', #69, #114 ) ;
#130 = ORIENTED_EDGE ( 'NONE', *, *, #152, .T. ) ;
#131 = FACE_OUTER_BOUND ( 'NONE', #133, .T. ) ;
#132 = ORIENTED_EDGE ( 'NONE', *, *, #152, .F. ) ;
#133 = EDGE_LOOP ( 'NONE', ( #116, #104, #112, #115 ) ) ;
#134 = PERSON_AND_ORGANIZATION ( #76, #105 ) ;
#135 = APPROVAL_DATE_TIME ( #136, #153 ) ;
#136 = DATE_AND_TIME ( #118, #117 ) ;
#137 = ORIENTED_EDGE ( 'NONE', *, *, #168, .T. ) ;
#138 = FACE_OUTER_BOUND ( 'NONE', #113, .T. ) ;
#139 = AXIS2_PLACEMENT_3D ( 'NONE', #22, #23, #24 ) ;
#140 = APPROVAL ( #87, 'UNSPECIFIED' ) ;
#141 = AXIS2_PLACEMENT_3D ( 'NONE', #3, #4, #5 ) ;
#142 = AXIS2_PLACEMENT_3D ( 'NONE', #172, #175, #61 ) ;
#143 = CC_DESIGN_PERSON_AND_ORGANIZATION_ASSIGNMENT ( #134, #85, ( #146 ) ) ;
#144 = CC_DESIGN_DATE_AND_TIME_ASSIGNMENT ( #49, #86, ( #146 ) ) ;
#145 = AXIS2_PLACEMENT_3D ( 'NONE', #70, #15, #16 ) ;
#146 = PRODUCT_DEFINITION ( 'UNKNOWN', '', #150, #55 ) ;
#147 = AXIS2_PLACEMENT_3D ( 'NONE', #68, #72, #73 ) ;
#148 = EDGE_CURVE ( 'NONE', #173, #63, #129, .T. ) ;
#149 = AXIS2_PLACEMENT_3D ( 'NONE', #66, #65, #64 ) ;
#150 = PRODUCT_DEFINITION_FORMATION_WITH_SPECIFIED_SOURCE ( 'ANY', '', #77, .NOT_KNOWN. ) ;
#151 = EDGE_CURVE ( 'NONE', #60, #63, #127, .T. ) ;
#152 = EDGE_CURVE ( 'NONE', #62, #173, #126, .T. ) ;
#153 = APPROVAL ( #83, 'UNSPECIFIED' ) ;
#154 = AXIS2_PLACEMENT_3D ( 'NONE', #1, #8, #9 ) ;
#155 = CC_DESIGN_DATE_AND_TIME_ASSIGNMENT ( #54, #93, ( #160 ) ) ;
#156 = CC_DESIGN_APPROVAL ( #140, ( #150 ) ) ;
#157 = CC_DESIGN_PERSON_AND_ORGANIZATION_ASSIGNMENT ( #48, #89, ( #150 ) ) ;
#158 = CC_DESIGN_APPROVAL ( #161, ( #160 ) ) ;
#159 = CC_DESIGN_PERSON_AND_ORGANIZATION_ASSIGNMENT ( #52, #90, ( #150 ) ) ;
#160 = SECURITY_CLASSIFICATION ( '', '', #91 ) ;
#161 = APPROVAL ( #94, 'UNSPECIFIED' ) ;
#162 = AXIS2_PLACEMENT_3D ( 'NONE', #11, #12, #13 ) ;
#163 = CC_DESIGN_PERSON_AND_ORGANIZATION_ASSIGNMENT ( #37, #92, ( #160 ) ) ;
#164 = EDGE_CURVE ( 'NONE', #63, #60, #125, .T. ) ;
#165 = AXIS2_PLACEMENT_3D ( 'NONE', #74, #75, #10 ) ;
#166 = CC_DESIGN_APPROVAL ( #153, ( #146 ) ) ;
#167 = PRODUCT_RELATED_PRODUCT_CATEGORY ( 'detail', '', ( #77 ) ) ;
#168 = EDGE_CURVE ( 'NONE', #173, #62, #123, .T. ) ;
#169 = CC_DESIGN_PERSON_AND_ORGANIZATION_ASSIGNMENT ( #122, #80, ( #77 ) ) ;
#170 = EDGE_CURVE ( 'NONE', #62, #60, #128, .T. ) ;
#171 = CC_DESIGN_SECURITY_CLASSIFICATION ( #160, ( #150 ) ) ;
#172 = CARTESIAN_POINT ( 'NONE',  ( 0.0000000000000000000, 0.0000000000000000000, 350.0000000000000000 ) ) ;
#173 = VERTEX_POINT ( 'NONE', #14 ) ;
#174 = CARTESIAN_POINT ( 'NONE',  ( 6.000000000000000900, 7.347880794884120700E-016, 0.0000000000000000000 ) ) ;
#175 = DIRECTION ( 'NONE',  ( -0.0000000000000000000, -0.0000000000000000000, -1.000000000000000000 ) ) ;
ENDSEC;
END-ISO-10303-21;
