ISO-10303-21;
HEADER;
FILE_DESCRIPTION (( 'STEP AP203' ),
    '1' );
FILE_NAME ('OtherClampBlock.STEP',
    '2012-06-27T21:41:36',
    ( '' ),
    ( '' ),
    'SwSTEP 2.0',
    'SolidWorks 2010',
    '' );
FILE_SCHEMA (( 'CONFIG_CONTROL_DESIGN' ));
ENDSEC;

DATA;
#1 = FACE_OUTER_BOUND ( 'NONE', #76, .T. ) ;
#2 = FACE_OUTER_BOUND ( 'NONE', #55, .T. ) ;
#3 = VECTOR ( 'NONE', #289, 1000.000000000000000 ) ;
#4 = LINE ( 'NONE', #288, #3 ) ;
#5 = FACE_OUTER_BOUND ( 'NONE', #72, .T. ) ;
#6 = CYLINDRICAL_SURFACE ( 'NONE', #345, 5.249999999999997300 ) ;
#7 = FACE_OUTER_BOUND ( 'NONE', #73, .T. ) ;
#8 = AXIS2_PLACEMENT_3D ( 'NONE', #258, #336, #337 ) ;
#9 = VECTOR ( 'NONE', #292, 1000.000000000000000 ) ;
#10 = FACE_OUTER_BOUND ( 'NONE', #83, .T. ) ;
#11 = LINE ( 'NONE', #291, #9 ) ;
#12 = ORIENTED_EDGE ( 'NONE', *, *, #90, .T. ) ;
#13 = EDGE_LOOP ( 'NONE', ( #79, #84, #81, #82 ) ) ;
#14 = ORIENTED_EDGE ( 'NONE', *, *, #95, .F. ) ;
#15 = ORIENTED_EDGE ( 'NONE', *, *, #92, .T. ) ;
#16 = ORIENTED_EDGE ( 'NONE', *, *, #173, .T. ) ;
#17 = ORIENTED_EDGE ( 'NONE', *, *, #114, .T. ) ;
#18 = ORIENTED_EDGE ( 'NONE', *, *, #95, .T. ) ;
#19 = ORIENTED_EDGE ( 'NONE', *, *, #90, .F. ) ;
#20 = ORIENTED_EDGE ( 'NONE', *, *, #410, .F. ) ;
#21 = ORIENTED_EDGE ( 'NONE', *, *, #93, .F. ) ;
#22 = ORIENTED_EDGE ( 'NONE', *, *, #96, .T. ) ;
#23 = CLOSED_SHELL ( 'NONE', ( #366, #362, #363, #364, #365, #361, #356, #357, #358, #359, #360 ) ) ;
#24 = ORIENTED_EDGE ( 'NONE', *, *, #91, .T. ) ;
#25 = ORIENTED_EDGE ( 'NONE', *, *, #119, .F. ) ;
#26 = LINE ( 'NONE', #204, #147 ) ;
#27 = ORIENTED_EDGE ( 'NONE', *, *, #94, .T. ) ;
#28 = ORIENTED_EDGE ( 'NONE', *, *, #173, .F. ) ;
#29 = ORIENTED_EDGE ( 'NONE', *, *, #117, .F. ) ;
#30 = ORIENTED_EDGE ( 'NONE', *, *, #94, .F. ) ;
#31 = ORIENTED_EDGE ( 'NONE', *, *, #88, .T. ) ;
#32 = EDGE_LOOP ( 'NONE', ( #67, #63, #68, #70 ) ) ;
#33 = EDGE_LOOP ( 'NONE', ( #22, #14, #19, #71, #65 ) ) ;
#34 = ORIENTED_EDGE ( 'NONE', *, *, #368, .T. ) ;
#35 = ORIENTED_EDGE ( 'NONE', *, *, #118, .T. ) ;
#36 = ORIENTED_EDGE ( 'NONE', *, *, #171, .T. ) ;
#37 = ORIENTED_EDGE ( 'NONE', *, *, #118, .F. ) ;
#38 = LINE ( 'NONE', #180, #51 ) ;
#39 = ORIENTED_EDGE ( 'NONE', *, *, #114, .F. ) ;
#40 = LINE ( 'NONE', #179, #166 ) ;
#41 = ORIENTED_EDGE ( 'NONE', *, *, #115, .F. ) ;
#42 = EDGE_LOOP ( 'NONE', ( #62, #69 ) ) ;
#43 = EDGE_LOOP ( 'NONE', ( #60, #35, #27, #80 ) ) ;
#44 = ORIENTED_EDGE ( 'NONE', *, *, #367, .T. ) ;
#45 = ORIENTED_EDGE ( 'NONE', *, *, #119, .T. ) ;
#46 = ORIENTED_EDGE ( 'NONE', *, *, #89, .F. ) ;
#47 = ORIENTED_EDGE ( 'NONE', *, *, #91, .F. ) ;
#48 = ORIENTED_EDGE ( 'NONE', *, *, #88, .F. ) ;
#49 = ORIENTED_EDGE ( 'NONE', *, *, #112, .F. ) ;
#50 = ORIENTED_EDGE ( 'NONE', *, *, #87, .T. ) ;
#51 = VECTOR ( 'NONE', #209, 1000.000000000000000 ) ;
#52 = ORIENTED_EDGE ( 'NONE', *, *, #120, .F. ) ;
#53 = ORIENTED_EDGE ( 'NONE', *, *, #172, .F. ) ;
#54 = ORIENTED_EDGE ( 'NONE', *, *, #120, .T. ) ;
#55 = EDGE_LOOP ( 'NONE', ( #21, #15, #16, #12, #59, #25 ) ) ;
#56 = LINE ( 'NONE', #330, #150 ) ;
#57 = EDGE_LOOP ( 'NONE', ( #48, #37 ) ) ;
#58 = ORIENTED_EDGE ( 'NONE', *, *, #121, .F. ) ;
#59 = ORIENTED_EDGE ( 'NONE', *, *, #171, .F. ) ;
#60 = ORIENTED_EDGE ( 'NONE', *, *, #367, .F. ) ;
#61 = ORIENTED_EDGE ( 'NONE', *, *, #409, .T. ) ;
#62 = ORIENTED_EDGE ( 'NONE', *, *, #117, .T. ) ;
#63 = ORIENTED_EDGE ( 'NONE', *, *, #368, .F. ) ;
#64 = ORIENTED_EDGE ( 'NONE', *, *, #89, .T. ) ;
#65 = ORIENTED_EDGE ( 'NONE', *, *, #409, .F. ) ;
#66 = ORIENTED_EDGE ( 'NONE', *, *, #172, .T. ) ;
#67 = ORIENTED_EDGE ( 'NONE', *, *, #410, .T. ) ;
#68 = ORIENTED_EDGE ( 'NONE', *, *, #96, .F. ) ;
#69 = ORIENTED_EDGE ( 'NONE', *, *, #113, .T. ) ;
#70 = ORIENTED_EDGE ( 'NONE', *, *, #121, .T. ) ;
#71 = ORIENTED_EDGE ( 'NONE', *, *, #87, .F. ) ;
#72 = EDGE_LOOP ( 'NONE', ( #28, #46, #54, #50 ) ) ;
#73 = EDGE_LOOP ( 'NONE', ( #47, #58, #61, #52, #53, #49 ) ) ;
#74 = EDGE_LOOP ( 'NONE', ( #18, #34, #39, #36 ) ) ;
#75 = EDGE_LOOP ( 'NONE', ( #64, #77, #78, #66 ) ) ;
#76 = EDGE_LOOP ( 'NONE', ( #17, #20, #24, #41, #45 ) ) ;
#77 = ORIENTED_EDGE ( 'NONE', *, *, #92, .F. ) ;
#78 = ORIENTED_EDGE ( 'NONE', *, *, #86, .F. ) ;
#79 = ORIENTED_EDGE ( 'NONE', *, *, #112, .T. ) ;
#80 = ORIENTED_EDGE ( 'NONE', *, *, #113, .F. ) ;
#81 = ORIENTED_EDGE ( 'NONE', *, *, #93, .T. ) ;
#82 = ORIENTED_EDGE ( 'NONE', *, *, #115, .T. ) ;
#83 = EDGE_LOOP ( 'NONE', ( #31, #44, #29, #30 ) ) ;
#84 = ORIENTED_EDGE ( 'NONE', *, *, #86, .T. ) ;
#85 = VECTOR ( 'NONE', #294, 1000.000000000000000 ) ;
#86 = EDGE_CURVE ( 'NONE', #190, #212, #38, .T. ) ;
#87 = EDGE_CURVE ( 'NONE', #176, #188, #163, .T. ) ;
#88 = EDGE_CURVE ( 'NONE', #175, #266, #331, .T. ) ;
#89 = EDGE_CURVE ( 'NONE', #219, #187, #138, .T. ) ;
#90 = EDGE_CURVE ( 'NONE', #188, #208, #40, .T. ) ;
#91 = EDGE_CURVE ( 'NONE', #174, #324, #26, .T. ) ;
#92 = EDGE_CURVE ( 'NONE', #212, #187, #56, .T. ) ;
#93 = EDGE_CURVE ( 'NONE', #212, #272, #130, .T. ) ;
#94 = EDGE_CURVE ( 'NONE', #175, #326, #151, .T. ) ;
#95 = EDGE_CURVE ( 'NONE', #208, #181, #132, .T. ) ;
#96 = EDGE_CURVE ( 'NONE', #295, #181, #153, .T. ) ;
#97 = PRODUCT_DEFINITION_FORMATION_WITH_SPECIFIED_SOURCE ( 'ANY', '', #125, .NOT_KNOWN. ) ;
#98 = APPROVAL ( #322, 'UNSPECIFIED' ) ;
#99 = PRODUCT_RELATED_PRODUCT_CATEGORY ( 'detail', '', ( #125 ) ) ;
#100 = SECURITY_CLASSIFICATION ( '', '', #319 ) ;
#101 = CC_DESIGN_SECURITY_CLASSIFICATION ( #100, ( #97 ) ) ;
#102 = CC_DESIGN_PERSON_AND_ORGANIZATION_ASSIGNMENT ( #396, #318, ( #97 ) ) ;
#103 = CC_DESIGN_PERSON_AND_ORGANIZATION_ASSIGNMENT ( #397, #320, ( #100 ) ) ;
#104 = CC_DESIGN_APPROVAL ( #98, ( #100 ) ) ;
#105 = CC_DESIGN_PERSON_AND_ORGANIZATION_ASSIGNMENT ( #383, #313, ( #342 ) ) ;
#106 = CC_DESIGN_DATE_AND_TIME_ASSIGNMENT ( #387, #314, ( #342 ) ) ;
#107 = CC_DESIGN_DATE_AND_TIME_ASSIGNMENT ( #401, #321, ( #100 ) ) ;
#108 = CC_DESIGN_APPROVAL ( #110, ( #97 ) ) ;
#109 = CC_DESIGN_APPROVAL ( #349, ( #342 ) ) ;
#110 = APPROVAL ( #315, 'UNSPECIFIED' ) ;
#111 = CC_DESIGN_PERSON_AND_ORGANIZATION_ASSIGNMENT ( #395, #317, ( #97 ) ) ;
#112 = EDGE_CURVE ( 'NONE', #324, #190, #160, .T. ) ;
#113 = EDGE_CURVE ( 'NONE', #304, #326, #143, .T. ) ;
#114 = EDGE_CURVE ( 'NONE', #286, #301, #142, .T. ) ;
#115 = EDGE_CURVE ( 'NONE', #272, #324, #144, .T. ) ;
#116 = AXIS2_PLACEMENT_3D ( 'NONE', #329, #186, #325 ) ;
#117 = EDGE_CURVE ( 'NONE', #326, #304, #137, .T. ) ;
#118 = EDGE_CURVE ( 'NONE', #266, #175, #334, .T. ) ;
#119 = EDGE_CURVE ( 'NONE', #272, #286, #170, .T. ) ;
#120 = EDGE_CURVE ( 'NONE', #219, #176, #168, .T. ) ;
#121 = EDGE_CURVE ( 'NONE', #295, #174, #155, .T. ) ;
#122 = CYLINDRICAL_SURFACE ( 'NONE', #352, 5.249999999999997300 ) ;
#123 = LINE ( 'NONE', #296, #139 ) ;
#124 = LINE ( 'NONE', #290, #85 ) ;
#125 = PRODUCT ( 'OtherClampBlock', 'OtherClampBlock', '', ( #307 ) ) ;
#126 = PERSON ( 'UNSPECIFIED', 'UNSPECIFIED', 'UNSPECIFIED', ('UNSPECIFIED'), ('UNSPECIFIED'), ('UNSPECIFIED') ) ;
#127 = VECTOR ( 'NONE', #197, 1000.000000000000000 ) ;
#128 = LINE ( 'NONE', #198, #156 ) ;
#129 = VECTOR ( 'NONE', #340, 1000.000000000000000 ) ;
#130 = LINE ( 'NONE', #184, #136 ) ;
#131 = FACE_OUTER_BOUND ( 'NONE', #13, .T. ) ;
#132 = LINE ( 'NONE', #239, #165 ) ;
#133 = VECTOR ( 'NONE', #202, 1000.000000000000000 ) ;
#134 = FACE_BOUND ( 'NONE', #42, .T. ) ;
#135 = FACE_BOUND ( 'NONE', #57, .T. ) ;
#136 = VECTOR ( 'NONE', #185, 1000.000000000000000 ) ;
#137 = CIRCLE ( 'NONE', #8, 5.249999999999997300 ) ;
#138 = LINE ( 'NONE', #252, #145 ) ;
#139 = VECTOR ( 'NONE', #298, 1000.000000000000100 ) ;
#140 = VECTOR ( 'NONE', #183, 1000.000000000000100 ) ;
#141 = LINE ( 'NONE', #215, #148 ) ;
#142 = LINE ( 'NONE', #192, #167 ) ;
#143 = CIRCLE ( 'NONE', #116, 5.249999999999997300 ) ;
#144 = LINE ( 'NONE', #339, #129 ) ;
#145 = VECTOR ( 'NONE', #250, 1000.000000000000000 ) ;
#146 = VECTOR ( 'NONE', #327, 1000.000000000000000 ) ;
#147 = VECTOR ( 'NONE', #254, 1000.000000000000000 ) ;
#148 = VECTOR ( 'NONE', #216, 1000.000000000000000 ) ;
#149 = VECTOR ( 'NONE', #177, 1000.000000000000000 ) ;
#150 = VECTOR ( 'NONE', #191, 1000.000000000000000 ) ;
#151 = LINE ( 'NONE', #195, #127 ) ;
#152 = LINE ( 'NONE', #211, #154 ) ;
#153 = LINE ( 'NONE', #225, #140 ) ;
#154 = VECTOR ( 'NONE', #213, 1000.000000000000000 ) ;
#155 = LINE ( 'NONE', #205, #162 ) ;
#156 = VECTOR ( 'NONE', #210, 1000.000000000000000 ) ;
#157 = FACE_OUTER_BOUND ( 'NONE', #32, .T. ) ;
#158 = FACE_OUTER_BOUND ( 'NONE', #75, .T. ) ;
#159 = VECTOR ( 'NONE', #200, 1000.000000000000000 ) ;
#160 = LINE ( 'NONE', #189, #146 ) ;
#161 = FACE_OUTER_BOUND ( 'NONE', #43, .T. ) ;
#162 = VECTOR ( 'NONE', #206, 1000.000000000000000 ) ;
#163 = LINE ( 'NONE', #178, #149 ) ;
#164 = FACE_OUTER_BOUND ( 'NONE', #33, .T. ) ;
#165 = VECTOR ( 'NONE', #182, 1000.000000000000000 ) ;
#166 = VECTOR ( 'NONE', #242, 1000.000000000000000 ) ;
#167 = VECTOR ( 'NONE', #338, 1000.000000000000000 ) ;
#168 = LINE ( 'NONE', #201, #133 ) ;
#169 = FACE_OUTER_BOUND ( 'NONE', #74, .T. ) ;
#170 = LINE ( 'NONE', #199, #159 ) ;
#171 = EDGE_CURVE ( 'NONE', #286, #208, #128, .T. ) ;
#172 = EDGE_CURVE ( 'NONE', #190, #219, #152, .T. ) ;
#173 = EDGE_CURVE ( 'NONE', #187, #188, #141, .T. ) ;
#174 = VERTEX_POINT ( 'NONE', #203 ) ;
#175 = VERTEX_POINT ( 'NONE', #217 ) ;
#176 = VERTEX_POINT ( 'NONE', #218 ) ;
#177 = DIRECTION ( 'NONE',  ( 1.000000000000000000, 0.0000000000000000000, 0.0000000000000000000 ) ) ;
#178 = CARTESIAN_POINT ( 'NONE',  ( 0.0000000000000000000, 0.0000000000000000000, 0.0000000000000000000 ) ) ;
#179 = CARTESIAN_POINT ( 'NONE',  ( 76.20000000000000300, 0.0000000000000000000, 0.0000000000000000000 ) ) ;
#180 = CARTESIAN_POINT ( 'NONE',  ( 7.776507174585693000E-015, 25.40000000000000600, -5.000000000000000000 ) ) ;
#181 = VERTEX_POINT ( 'NONE', #214 ) ;
#182 = DIRECTION ( 'NONE',  ( -1.000000000000000000, -0.0000000000000000000, -0.0000000000000000000 ) ) ;
#183 = DIRECTION ( 'NONE',  ( 0.7427122835392668800, 0.0000000000000000000, -0.6696106808287092300 ) ) ;
#184 = CARTESIAN_POINT ( 'NONE',  ( 76.20000000000000300, 88.90000000000000600, -5.000000000000000000 ) ) ;
#185 = DIRECTION ( 'NONE',  ( -0.0000000000000000000, 1.000000000000000000, -0.0000000000000000000 ) ) ;
#186 = DIRECTION ( 'NONE',  ( 0.0000000000000000000, -0.0000000000000000000, -1.000000000000000000 ) ) ;
#187 = VERTEX_POINT ( 'NONE', #220 ) ;
#188 = VERTEX_POINT ( 'NONE', #221 ) ;
#189 = CARTESIAN_POINT ( 'NONE',  ( 0.0000000000000000000, 88.90000000000000600, -5.000000000000000000 ) ) ;
#190 = VERTEX_POINT ( 'NONE', #222 ) ;
#191 = DIRECTION ( 'NONE',  ( -0.0000000000000000000, -0.0000000000000000000, 1.000000000000000000 ) ) ;
#192 = CARTESIAN_POINT ( 'NONE',  ( 0.0000000000000000000, 88.90000000000000600, -76.20000000000000300 ) ) ;
#193 = CARTESIAN_POINT ( 'NONE',  ( 32.84999999999999400, 67.64999999999999100, -60.01673228346454900 ) ) ;
#194 = CARTESIAN_POINT ( 'NONE',  ( 43.34999999999999400, 67.64999999999999100, -69.48326771653540800 ) ) ;
#195 = CARTESIAN_POINT ( 'NONE',  ( 43.34999999999999400, 57.14999999999999900, -300.0000000000000000 ) ) ;
#196 = CARTESIAN_POINT ( 'NONE',  ( 43.34999999999999400, 57.14999999999999900, -69.48326771653542300 ) ) ;
#197 = DIRECTION ( 'NONE',  ( -0.0000000000000000000, -0.0000000000000000000, 1.000000000000000000 ) ) ;
#198 = CARTESIAN_POINT ( 'NONE',  ( 76.20000000000000300, 88.90000000000000600, -76.20000000000000300 ) ) ;
#199 = CARTESIAN_POINT ( 'NONE',  ( 76.20000000000000300, 88.90000000000000600, 0.0000000000000000000 ) ) ;
#200 = DIRECTION ( 'NONE',  ( 0.0000000000000000000, 0.0000000000000000000, -1.000000000000000000 ) ) ;
#201 = CARTESIAN_POINT ( 'NONE',  ( 0.0000000000000000000, 88.90000000000000600, 0.0000000000000000000 ) ) ;
#202 = DIRECTION ( 'NONE',  ( -0.0000000000000000000, -1.000000000000000000, -0.0000000000000000000 ) ) ;
#203 = CARTESIAN_POINT ( 'NONE',  ( 0.0000000000000000000, 88.90000000000000600, -30.40000000000000200 ) ) ;
#204 = CARTESIAN_POINT ( 'NONE',  ( 0.0000000000000000000, 88.90000000000000600, 0.0000000000000000000 ) ) ;
#205 = CARTESIAN_POINT ( 'NONE',  ( 0.0000000000000000000, 0.0000000000000000000, -30.40000000000000200 ) ) ;
#206 = DIRECTION ( 'NONE',  ( -0.0000000000000000000, 1.000000000000000000, -0.0000000000000000000 ) ) ;
#207 = CARTESIAN_POINT ( 'NONE',  ( 76.20000000000000300, 0.0000000000000000000, -76.20000000000000300 ) ) ;
#208 = VERTEX_POINT ( 'NONE', #207 ) ;
#209 = DIRECTION ( 'NONE',  ( 1.000000000000000000, 0.0000000000000000000, 0.0000000000000000000 ) ) ;
#210 = DIRECTION ( 'NONE',  ( -0.0000000000000000000, -1.000000000000000000, -0.0000000000000000000 ) ) ;
#211 = CARTESIAN_POINT ( 'NONE',  ( 7.776507174585693000E-015, 25.40000000000000600, -5.000000000000000000 ) ) ;
#212 = VERTEX_POINT ( 'NONE', #223 ) ;
#213 = DIRECTION ( 'NONE',  ( -0.0000000000000000000, -0.0000000000000000000, 1.000000000000000000 ) ) ;
#214 = CARTESIAN_POINT ( 'NONE',  ( 50.79999999999998300, 0.0000000000000000000, -76.20000000000000300 ) ) ;
#215 = CARTESIAN_POINT ( 'NONE',  ( 76.20000000000000300, 88.90000000000000600, 0.0000000000000000000 ) ) ;
#216 = DIRECTION ( 'NONE',  ( -0.0000000000000000000, -1.000000000000000000, -0.0000000000000000000 ) ) ;
#217 = CARTESIAN_POINT ( 'NONE',  ( 43.34999999999999400, 57.14999999999999900, -69.48326771653542300 ) ) ;
#218 = CARTESIAN_POINT ( 'NONE',  ( 0.0000000000000000000, 0.0000000000000000000, 0.0000000000000000000 ) ) ;
#219 = VERTEX_POINT ( 'NONE', #224 ) ;
#220 = CARTESIAN_POINT ( 'NONE',  ( 76.20000000000000300, 25.40000000000000600, 0.0000000000000000000 ) ) ;
#221 = CARTESIAN_POINT ( 'NONE',  ( 76.20000000000000300, 0.0000000000000000000, 0.0000000000000000000 ) ) ;
#222 = CARTESIAN_POINT ( 'NONE',  ( 7.776507174585693000E-015, 25.40000000000000600, -5.000000000000000000 ) ) ;
#223 = CARTESIAN_POINT ( 'NONE',  ( 76.20000000000000300, 25.40000000000000600, -5.000000000000000000 ) ) ;
#224 = CARTESIAN_POINT ( 'NONE',  ( 7.776507174585693000E-015, 25.40000000000000600, 0.0000000000000000000 ) ) ;
#225 = CARTESIAN_POINT ( 'NONE',  ( -18.73416329836495500, 0.0000000000000000000, -13.50975041210402900 ) ) ;
#226 = CARTESIAN_POINT ( 'NONE',  ( 32.84999999999999400, 57.14999999999999900, -60.01673228346454900 ) ) ;
#227 = CARTESIAN_POINT ( 'NONE',  ( 76.20000000000000300, 88.90000000000000600, -5.000000000000002700 ) ) ;
#228 = CARTESIAN_POINT ( 'NONE',  ( 76.20000000000000300, 88.90000000000000600, -76.20000000000000300 ) ) ;
#229 = CARTESIAN_POINT ( 'NONE',  ( 0.0000000000000000000, 0.0000000000000000000, -30.40000000000000200 ) ) ;
#230 = CARTESIAN_POINT ( 'NONE',  ( 50.79999999999997600, 88.90000000000000600, -76.19999999999998900 ) ) ;
#231 = CARTESIAN_POINT ( 'NONE',  ( 32.84999999999999400, 57.14999999999999900, -5.000000000000004400 ) ) ;
#232 = CARTESIAN_POINT ( 'NONE',  ( 0.0000000000000000000, 88.90000000000000600, -5.000000000000000000 ) ) ;
#233 = CARTESIAN_POINT ( 'NONE',  ( 32.84999999999999400, 57.14999999999999900, -60.01673228346454900 ) ) ;
#234 = CARTESIAN_POINT ( 'NONE',  ( 43.34999999999999400, 57.14999999999999900, -5.000000000000004400 ) ) ;
#235 = CARTESIAN_POINT ( 'NONE',  ( 0.0000000000000000000, 88.90000000000000600, -76.20000000000000300 ) ) ;
#236 = PLANE ( 'NONE',  #350 ) ;
#237 = CARTESIAN_POINT ( 'NONE',  ( 0.0000000000000000000, 0.0000000000000000000, -76.20000000000000300 ) ) ;
#238 = PLANE ( 'NONE',  #341 ) ;
#239 = CARTESIAN_POINT ( 'NONE',  ( 0.0000000000000000000, 0.0000000000000000000, -76.20000000000000300 ) ) ;
#240 = CARTESIAN_POINT ( 'NONE',  ( 0.0000000000000000000, 88.90000000000000600, -76.20000000000000300 ) ) ;
#241 = DIRECTION ( 'NONE',  ( 0.0000000000000000000, 0.0000000000000000000, 1.000000000000000000 ) ) ;
#242 = DIRECTION ( 'NONE',  ( 0.0000000000000000000, 0.0000000000000000000, -1.000000000000000000 ) ) ;
#243 = DIRECTION ( 'NONE',  ( 1.000000000000000000, 0.0000000000000000000, -0.0000000000000000000 ) ) ;
#244 = CARTESIAN_POINT ( 'NONE',  ( 43.34999999999999400, 46.65000000000001300, -69.48326771653540800 ) ) ;
#245 = PLANE ( 'NONE',  #355 ) ;
#246 = CARTESIAN_POINT ( 'NONE',  ( 7.776507174585693000E-015, 25.40000000000000600, -5.000000000000000000 ) ) ;
#247 = CARTESIAN_POINT ( 'NONE',  ( 43.34999999999999400, 57.14999999999999900, -69.48326771653542300 ) ) ;
#248 = DIRECTION ( 'NONE',  ( 0.0000000000000000000, -1.000000000000000000, 0.0000000000000000000 ) ) ;
#249 = DIRECTION ( 'NONE',  ( 0.0000000000000000000, -0.0000000000000000000, -1.000000000000000000 ) ) ;
#250 = DIRECTION ( 'NONE',  ( 1.000000000000000000, 0.0000000000000000000, 0.0000000000000000000 ) ) ;
#251 = PLANE ( 'NONE',  #351 ) ;
#252 = CARTESIAN_POINT ( 'NONE',  ( 7.776507174585693000E-015, 25.40000000000000600, 0.0000000000000000000 ) ) ;
#253 = CARTESIAN_POINT ( 'NONE',  ( 7.776507174585693000E-015, 25.40000000000000600, -5.000000000000000000 ) ) ;
#254 = DIRECTION ( 'NONE',  ( -0.0000000000000000000, -0.0000000000000000000, 1.000000000000000000 ) ) ;
#255 = DIRECTION ( 'NONE',  ( -0.0000000000000000000, 0.0000000000000000000, 1.000000000000000000 ) ) ;
#256 = DIRECTION ( 'NONE',  ( 1.000000000000000000, 0.0000000000000000000, 0.0000000000000000000 ) ) ;
#257 = PLANE ( 'NONE',  #346 ) ;
#258 = CARTESIAN_POINT ( 'NONE',  ( 38.09999999999999400, 57.14999999999999900, -5.000000000000004400 ) ) ;
#259 = CARTESIAN_POINT ( 'NONE',  ( -18.73416329836495500, 0.0000000000000000000, -13.50975041210402900 ) ) ;
#260 = DIRECTION ( 'NONE',  ( 0.0000000000000000000, -1.000000000000000000, 0.0000000000000000000 ) ) ;
#261 = DIRECTION ( 'NONE',  ( 0.0000000000000000000, -0.0000000000000000000, -1.000000000000000000 ) ) ;
#262 = PLANE ( 'NONE',  #353 ) ;
#263 = CARTESIAN_POINT ( 'NONE',  ( 76.20000000000000300, 88.90000000000000600, 0.0000000000000000000 ) ) ;
#264 = DIRECTION ( 'NONE',  ( 0.6696106808287093400, 0.0000000000000000000, 0.7427122835392668800 ) ) ;
#265 = DIRECTION ( 'NONE',  ( 0.7427122835392668800, 0.0000000000000000000, -0.6696106808287093400 ) ) ;
#266 = VERTEX_POINT ( 'NONE', #226 ) ;
#267 = DIRECTION ( 'NONE',  ( 1.000000000000000000, 0.0000000000000000000, 0.0000000000000000000 ) ) ;
#268 = PLANE ( 'NONE',  #344 ) ;
#269 = DIRECTION ( 'NONE',  ( -1.000000000000000000, 0.0000000000000000000, 0.0000000000000000000 ) ) ;
#270 = DIRECTION ( 'NONE',  ( 0.0000000000000000000, 0.0000000000000000000, 1.000000000000000000 ) ) ;
#271 = CARTESIAN_POINT ( 'NONE',  ( 38.09999999999999400, 57.14999999999999900, -300.0000000000000000 ) ) ;
#272 = VERTEX_POINT ( 'NONE', #227 ) ;
#273 = DIRECTION ( 'NONE',  ( -0.0000000000000000000, -0.0000000000000000000, 1.000000000000000000 ) ) ;
#274 = DIRECTION ( 'NONE',  ( 0.0000000000000000000, -1.000000000000000000, 0.0000000000000000000 ) ) ;
#275 = DIRECTION ( 'NONE',  ( 0.0000000000000000000, -0.0000000000000000000, -1.000000000000000000 ) ) ;
#276 = CARTESIAN_POINT ( 'NONE',  ( 0.0000000000000000000, 88.90000000000000600, 0.0000000000000000000 ) ) ;
#277 = DIRECTION ( 'NONE',  ( 1.000000000000000000, 0.0000000000000000000, 0.0000000000000000000 ) ) ;
#278 = PLANE ( 'NONE',  #348 ) ;
#279 = CARTESIAN_POINT ( 'NONE',  ( 0.0000000000000000000, 88.90000000000000600, 0.0000000000000000000 ) ) ;
#280 = PLANE ( 'NONE',  #354 ) ;
#281 = DIRECTION ( 'NONE',  ( 1.000000000000000000, -0.0000000000000000000, 0.0000000000000000000 ) ) ;
#282 = DIRECTION ( 'NONE',  ( 0.0000000000000000000, 0.0000000000000000000, -1.000000000000000000 ) ) ;
#283 = CARTESIAN_POINT ( 'NONE',  ( 38.09999999999999400, 57.14999999999999900, -300.0000000000000000 ) ) ;
#284 = DIRECTION ( 'NONE',  ( -0.0000000000000000000, -0.0000000000000000000, 1.000000000000000000 ) ) ;
#285 = DIRECTION ( 'NONE',  ( 0.0000000000000000000, 0.0000000000000000000, -1.000000000000000000 ) ) ;
#286 = VERTEX_POINT ( 'NONE', #228 ) ;
#287 = DIRECTION ( 'NONE',  ( -1.000000000000000000, 0.0000000000000000000, -0.0000000000000000000 ) ) ;
#288 = CARTESIAN_POINT ( 'NONE',  ( 32.84999999999999400, 57.14999999999999900, -300.0000000000000000 ) ) ;
#289 = DIRECTION ( 'NONE',  ( -0.0000000000000000000, -0.0000000000000000000, 1.000000000000000000 ) ) ;
#290 = CARTESIAN_POINT ( 'NONE',  ( 0.0000000000000000000, 0.0000000000000000000, 0.0000000000000000000 ) ) ;
#291 = CARTESIAN_POINT ( 'NONE',  ( 50.79999999999997600, 0.0000000000000000000, -76.19999999999998900 ) ) ;
#292 = DIRECTION ( 'NONE',  ( -0.0000000000000000000, 1.000000000000000000, -0.0000000000000000000 ) ) ;
#293 =( LENGTH_UNIT ( ) NAMED_UNIT ( * ) SI_UNIT ( .MILLI., .METRE. ) );
#294 = DIRECTION ( 'NONE',  ( -0.0000000000000000000, -0.0000000000000000000, 1.000000000000000000 ) ) ;
#295 = VERTEX_POINT ( 'NONE', #229 ) ;
#296 = CARTESIAN_POINT ( 'NONE',  ( -18.73416329836495500, 88.90000000000000600, -13.50975041210402900 ) ) ;
#297 = DIRECTION ( 'NONE',  ( 0.0000000000000000000, 0.0000000000000000000, 1.000000000000000000 ) ) ;
#298 = DIRECTION ( 'NONE',  ( 0.7427122835392668800, 0.0000000000000000000, -0.6696106808287092300 ) ) ;
#299 =( NAMED_UNIT ( * ) PLANE_ANGLE_UNIT ( ) SI_UNIT ( $, .RADIAN. ) );
#300 =( NAMED_UNIT ( * ) SI_UNIT ( $, .STERADIAN. ) SOLID_ANGLE_UNIT ( ) );
#301 = VERTEX_POINT ( 'NONE', #230 ) ;
#302 = CARTESIAN_POINT ( 'NONE',  ( 0.0000000000000000000, 0.0000000000000000000, 0.0000000000000000000 ) ) ;
#303 = DIRECTION ( 'NONE',  ( 1.000000000000000000, 0.0000000000000000000, 0.0000000000000000000 ) ) ;
#304 = VERTEX_POINT ( 'NONE', #231 ) ;
#305 = APPLICATION_CONTEXT ( 'configuration controlled 3d designs of mechanical parts and assemblies' ) ;
#306 = APPLICATION_PROTOCOL_DEFINITION ( 'international standard', 'config_control_design', 1994, #305 ) ;
#307 = MECHANICAL_CONTEXT ( 'NONE', #305, 'mechanical' ) ;
#308 = PERSON_AND_ORGANIZATION_ROLE ( 'design_owner' ) ;
#309 = APPLICATION_CONTEXT ( 'configuration controlled 3d designs of mechanical parts and assemblies' ) ;
#310 = APPLICATION_PROTOCOL_DEFINITION ( 'international standard', 'config_control_design', 1994, #309 ) ;
#311 = APPROVAL_STATUS ( 'not_yet_approved' ) ;
#312 = APPROVAL_ROLE ( '' ) ;
#313 = PERSON_AND_ORGANIZATION_ROLE ( 'creator' ) ;
#314 = DATE_TIME_ROLE ( 'creation_date' ) ;
#315 = APPROVAL_STATUS ( 'not_yet_approved' ) ;
#316 = APPROVAL_ROLE ( '' ) ;
#317 = PERSON_AND_ORGANIZATION_ROLE ( 'creator' ) ;
#318 = PERSON_AND_ORGANIZATION_ROLE ( 'design_supplier' ) ;
#319 = SECURITY_CLASSIFICATION_LEVEL ( 'unclassified' ) ;
#320 = PERSON_AND_ORGANIZATION_ROLE ( 'classification_officer' ) ;
#321 = DATE_TIME_ROLE ( 'classification_date' ) ;
#322 = APPROVAL_STATUS ( 'not_yet_approved' ) ;
#323 = APPROVAL_ROLE ( '' ) ;
#324 = VERTEX_POINT ( 'NONE', #232 ) ;
#325 = DIRECTION ( 'NONE',  ( 1.000000000000000000, 0.0000000000000000000, 0.0000000000000000000 ) ) ;
#326 = VERTEX_POINT ( 'NONE', #234 ) ;
#327 = DIRECTION ( 'NONE',  ( 1.224646799147353200E-016, -1.000000000000000000, 0.0000000000000000000 ) ) ;
#328 = CARTESIAN_POINT ( 'NONE',  ( 32.84999999999999400, 46.65000000000001300, -60.01673228346454900 ) ) ;
#329 = CARTESIAN_POINT ( 'NONE',  ( 38.09999999999999400, 57.14999999999999900, -5.000000000000004400 ) ) ;
#330 = CARTESIAN_POINT ( 'NONE',  ( 76.20000000000000300, 25.40000000000000600, -5.000000000000000000 ) ) ;
#331 =( BOUNDED_CURVE ( )  B_SPLINE_CURVE ( 3, ( #247, #244, #328, #233 ),
 .UNSPECIFIED., .F., .T. ) 
 B_SPLINE_CURVE_WITH_KNOTS ( ( 4, 4 ),
 ( 3.141592653589793100, 6.283185307179586200 ),
 .UNSPECIFIED. ) 
 CURVE ( )  GEOMETRIC_REPRESENTATION_ITEM ( )  RATIONAL_B_SPLINE_CURVE ( ( 1.000000000000000000, 0.3333333333333333700, 0.3333333333333333700, 1.000000000000000000 ) ) 
 REPRESENTATION_ITEM ( '' )  );
#332 = DESIGN_CONTEXT ( 'detailed design', #309, 'design' ) ;
#333 = PRODUCT_DEFINITION_SHAPE ( 'NONE', 'NONE',  #342 ) ;
#334 =( BOUNDED_CURVE ( )  B_SPLINE_CURVE ( 3, ( #335, #193, #194, #196 ),
 .UNSPECIFIED., .F., .F. ) 
 B_SPLINE_CURVE_WITH_KNOTS ( ( 4, 4 ),
 ( 0.0000000000000000000, 3.141592653589793100 ),
 .UNSPECIFIED. ) 
 CURVE ( )  GEOMETRIC_REPRESENTATION_ITEM ( )  RATIONAL_B_SPLINE_CURVE ( ( 1.000000000000000000, 0.3333333333333333700, 0.3333333333333333700, 1.000000000000000000 ) ) 
 REPRESENTATION_ITEM ( '' )  );
#335 = CARTESIAN_POINT ( 'NONE',  ( 32.84999999999999400, 57.14999999999999900, -60.01673228346454900 ) ) ;
#336 = DIRECTION ( 'NONE',  ( 0.0000000000000000000, -0.0000000000000000000, -1.000000000000000000 ) ) ;
#337 = DIRECTION ( 'NONE',  ( 1.000000000000000000, 0.0000000000000000000, 0.0000000000000000000 ) ) ;
#338 = DIRECTION ( 'NONE',  ( -1.000000000000000000, -0.0000000000000000000, -0.0000000000000000000 ) ) ;
#339 = CARTESIAN_POINT ( 'NONE',  ( 0.0000000000000000000, 88.90000000000000600, -5.000000000000000000 ) ) ;
#340 = DIRECTION ( 'NONE',  ( -1.000000000000000000, -0.0000000000000000000, -0.0000000000000000000 ) ) ;
#341 = AXIS2_PLACEMENT_3D ( 'NONE', #237, #248, #249 ) ;
#342 = PRODUCT_DEFINITION ( 'UNKNOWN', '', #97, #332 ) ;
#343 = AXIS2_PLACEMENT_3D ( 'NONE', #302, #297, #303 ) ;
#344 = AXIS2_PLACEMENT_3D ( 'NONE', #240, #274, #275 ) ;
#345 = AXIS2_PLACEMENT_3D ( 'NONE', #271, #273, #267 ) ;
#346 = AXIS2_PLACEMENT_3D ( 'NONE', #259, #264, #265 ) ;
#347 = CC_DESIGN_PERSON_AND_ORGANIZATION_ASSIGNMENT ( #375, #308, ( #125 ) ) ;
#348 = AXIS2_PLACEMENT_3D ( 'NONE', #276, #281, #282 ) ;
#349 = APPROVAL ( #311, 'UNSPECIFIED' ) ;
#350 = AXIS2_PLACEMENT_3D ( 'NONE', #235, #241, #243 ) ;
#351 = AXIS2_PLACEMENT_3D ( 'NONE', #253, #260, #261 ) ;
#352 = AXIS2_PLACEMENT_3D ( 'NONE', #283, #284, #277 ) ;
#353 = AXIS2_PLACEMENT_3D ( 'NONE', #263, #269, #270 ) ;
#354 = AXIS2_PLACEMENT_3D ( 'NONE', #279, #285, #287 ) ;
#355 = AXIS2_PLACEMENT_3D ( 'NONE', #246, #255, #256 ) ;
#356 = ADVANCED_FACE ( 'NONE', ( #169 ), #236, .F. ) ;
#357 = ADVANCED_FACE ( 'NONE', ( #164 ), #238, .T. ) ;
#358 = ADVANCED_FACE ( 'NONE', ( #131, #134 ), #245, .T. ) ;
#359 = ADVANCED_FACE ( 'NONE', ( #158 ), #251, .F. ) ;
#360 = ADVANCED_FACE ( 'NONE', ( #157, #135 ), #257, .F. ) ;
#361 = ADVANCED_FACE ( 'NONE', ( #2 ), #262, .F. ) ;
#362 = ADVANCED_FACE ( 'NONE', ( #1 ), #268, .F. ) ;
#363 = ADVANCED_FACE ( 'NONE', ( #161 ), #6, .F. ) ;
#364 = ADVANCED_FACE ( 'NONE', ( #7 ), #278, .F. ) ;
#365 = ADVANCED_FACE ( 'NONE', ( #5 ), #280, .F. ) ;
#366 = ADVANCED_FACE ( 'NONE', ( #10 ), #122, .F. ) ;
#367 = EDGE_CURVE ( 'NONE', #266, #304, #4, .T. ) ;
#368 = EDGE_CURVE ( 'NONE', #181, #301, #11, .T. ) ;
#369 = UNCERTAINTY_MEASURE_WITH_UNIT (LENGTH_MEASURE( 1.000000000000000100E-005 ), #293, 'distance_accuracy_value', 'NONE');
#370 = ADVANCED_BREP_SHAPE_REPRESENTATION ( 'OtherClampBlock', ( #371, #343 ), #372 ) ;
#371 = MANIFOLD_SOLID_BREP ( 'Cut-Extrude5', #23 ) ;
#372 =( GEOMETRIC_REPRESENTATION_CONTEXT ( 3 ) GLOBAL_UNCERTAINTY_ASSIGNED_CONTEXT ( ( #369 ) ) GLOBAL_UNIT_ASSIGNED_CONTEXT ( ( #293, #299, #300 ) ) REPRESENTATION_CONTEXT ( 'NONE', 'WORKASPACE' ) );
#373 = SHAPE_DEFINITION_REPRESENTATION ( #333, #370 ) ;
#374 = ORGANIZATION ( 'UNSPECIFIED', 'UNSPECIFIED', '' ) ;
#375 = PERSON_AND_ORGANIZATION ( #126, #374 ) ;
#376 = PERSON_AND_ORGANIZATION ( #126, #374 ) ;
#377 = APPROVAL_PERSON_ORGANIZATION ( #376, #349, #312 ) ;
#378 = COORDINATED_UNIVERSAL_TIME_OFFSET ( 6, 0, .BEHIND. ) ;
#379 = LOCAL_TIME ( 16, 41, 36.00000000000000000, #378 ) ;
#380 = CALENDAR_DATE ( 2012, 27, 6 ) ;
#381 = DATE_AND_TIME ( #380, #379 ) ;
#382 = APPROVAL_DATE_TIME ( #381, #349 ) ;
#383 = PERSON_AND_ORGANIZATION ( #126, #374 ) ;
#384 = COORDINATED_UNIVERSAL_TIME_OFFSET ( 6, 0, .BEHIND. ) ;
#385 = LOCAL_TIME ( 16, 41, 36.00000000000000000, #384 ) ;
#386 = CALENDAR_DATE ( 2012, 27, 6 ) ;
#387 = DATE_AND_TIME ( #386, #385 ) ;
#388 = PERSON_AND_ORGANIZATION ( #126, #374 ) ;
#389 = APPROVAL_PERSON_ORGANIZATION ( #388, #110, #316 ) ;
#390 = COORDINATED_UNIVERSAL_TIME_OFFSET ( 6, 0, .BEHIND. ) ;
#391 = LOCAL_TIME ( 16, 41, 36.00000000000000000, #390 ) ;
#392 = CALENDAR_DATE ( 2012, 27, 6 ) ;
#393 = DATE_AND_TIME ( #392, #391 ) ;
#394 = APPROVAL_DATE_TIME ( #393, #110 ) ;
#395 = PERSON_AND_ORGANIZATION ( #126, #374 ) ;
#396 = PERSON_AND_ORGANIZATION ( #126, #374 ) ;
#397 = PERSON_AND_ORGANIZATION ( #126, #374 ) ;
#398 = COORDINATED_UNIVERSAL_TIME_OFFSET ( 6, 0, .BEHIND. ) ;
#399 = LOCAL_TIME ( 16, 41, 36.00000000000000000, #398 ) ;
#400 = CALENDAR_DATE ( 2012, 27, 6 ) ;
#401 = DATE_AND_TIME ( #400, #399 ) ;
#402 = PERSON_AND_ORGANIZATION ( #126, #374 ) ;
#403 = APPROVAL_PERSON_ORGANIZATION ( #402, #98, #323 ) ;
#404 = COORDINATED_UNIVERSAL_TIME_OFFSET ( 6, 0, .BEHIND. ) ;
#405 = LOCAL_TIME ( 16, 41, 36.00000000000000000, #404 ) ;
#406 = CALENDAR_DATE ( 2012, 27, 6 ) ;
#407 = DATE_AND_TIME ( #406, #405 ) ;
#408 = APPROVAL_DATE_TIME ( #407, #98 ) ;
#409 = EDGE_CURVE ( 'NONE', #295, #176, #124, .T. ) ;
#410 = EDGE_CURVE ( 'NONE', #174, #301, #123, .T. ) ;
ENDSEC;
END-ISO-10303-21;
