ISO-10303-21;
HEADER;
FILE_DESCRIPTION (( 'STEP AP203' ),
    '1' );
FILE_NAME ('BridgeBar.STEP',
    '2012-05-21T21:33:23',
    ( '' ),
    ( '' ),
    'SwSTEP 2.0',
    'SolidWorks 2010',
    '' );
FILE_SCHEMA (( 'CONFIG_CONTROL_DESIGN' ));
ENDSEC;

DATA;
#1 = PRODUCT_DEFINITION_SHAPE ( 'NONE', 'NONE',  #34 ) ;
#2 = DESIGN_CONTEXT ( 'detailed design', #199, 'design' ) ;
#3 = MANIFOLD_SOLID_BREP ( 'Boss-Extrude1', #80 ) ;
#4 = ADVANCED_BREP_SHAPE_REPRESENTATION ( 'BridgeBar', ( #3, #7 ), #114 ) ;
#5 = UNCERTAINTY_MEASURE_WITH_UNIT (LENGTH_MEASURE( 1.000000000000000100E-005 ), #220, 'distance_accuracy_value', 'NONE');
#6 = EDGE_CURVE ( 'NONE', #153, #154, #45, .T. ) ;
#7 = AXIS2_PLACEMENT_3D ( 'NONE', #222, #226, #212 ) ;
#8 = APPROVAL ( #207, 'UNSPECIFIED' ) ;
#9 = EDGE_CURVE ( 'NONE', #143, #147, #111, .T. ) ;
#10 = CC_DESIGN_PERSON_AND_ORGANIZATION_ASSIGNMENT ( #117, #227, ( #231 ) ) ;
#11 = EDGE_CURVE ( 'NONE', #154, #147, #112, .T. ) ;
#12 = CC_DESIGN_PERSON_AND_ORGANIZATION_ASSIGNMENT ( #128, #208, ( #37 ) ) ;
#13 = CC_DESIGN_APPROVAL ( #31, ( #34 ) ) ;
#14 = EDGE_CURVE ( 'NONE', #150, #216, #113, .T. ) ;
#15 = PRODUCT_RELATED_PRODUCT_CATEGORY ( 'detail', '', ( #231 ) ) ;
#16 = CC_DESIGN_DATE_AND_TIME_ASSIGNMENT ( #137, #218, ( #32 ) ) ;
#17 = EDGE_CURVE ( 'NONE', #143, #145, #84, .T. ) ;
#18 = EDGE_CURVE ( 'NONE', #147, #146, #88, .T. ) ;
#19 = AXIS2_PLACEMENT_3D ( 'NONE', #188, #198, #217 ) ;
#20 = EDGE_CURVE ( 'NONE', #146, #153, #72, .T. ) ;
#21 = EDGE_CURVE ( 'NONE', #150, #153, #51, .T. ) ;
#22 = EDGE_CURVE ( 'NONE', #216, #154, #90, .T. ) ;
#23 = EDGE_CURVE ( 'NONE', #216, #143, #110, .T. ) ;
#24 = AXIS2_PLACEMENT_3D ( 'NONE', #183, #190, #191 ) ;
#25 = CC_DESIGN_APPROVAL ( #8, ( #32 ) ) ;
#26 = AXIS2_PLACEMENT_3D ( 'NONE', #196, #203, #228 ) ;
#27 = CC_DESIGN_SECURITY_CLASSIFICATION ( #32, ( #37 ) ) ;
#28 = EDGE_CURVE ( 'NONE', #145, #150, #108, .T. ) ;
#29 = AXIS2_PLACEMENT_3D ( 'NONE', #165, #186, #187 ) ;
#30 = CC_DESIGN_PERSON_AND_ORGANIZATION_ASSIGNMENT ( #107, #202, ( #37 ) ) ;
#31 = APPROVAL ( #209, 'UNSPECIFIED' ) ;
#32 = SECURITY_CLASSIFICATION ( '', '', #215 ) ;
#33 = CC_DESIGN_PERSON_AND_ORGANIZATION_ASSIGNMENT ( #125, #221, ( #34 ) ) ;
#34 = PRODUCT_DEFINITION ( 'UNKNOWN', '', #37, #2 ) ;
#35 = CC_DESIGN_DATE_AND_TIME_ASSIGNMENT ( #124, #211, ( #34 ) ) ;
#36 = AXIS2_PLACEMENT_3D ( 'NONE', #192, #206, #225 ) ;
#37 = PRODUCT_DEFINITION_FORMATION_WITH_SPECIFIED_SOURCE ( 'ANY', '', #231, .NOT_KNOWN. ) ;
#38 = APPROVAL ( #214, 'UNSPECIFIED' ) ;
#39 = CC_DESIGN_PERSON_AND_ORGANIZATION_ASSIGNMENT ( #106, #229, ( #32 ) ) ;
#40 = EDGE_CURVE ( 'NONE', #145, #146, #99, .T. ) ;
#41 = AXIS2_PLACEMENT_3D ( 'NONE', #185, #194, #195 ) ;
#42 = CC_DESIGN_APPROVAL ( #38, ( #37 ) ) ;
#43 = ORIENTED_EDGE ( 'NONE', *, *, #21, .T. ) ;
#44 = VECTOR ( 'NONE', #157, 1000.000000000000000 ) ;
#45 = LINE ( 'NONE', #148, #83 ) ;
#46 = ORIENTED_EDGE ( 'NONE', *, *, #23, .T. ) ;
#47 = ORIENTED_EDGE ( 'NONE', *, *, #18, .T. ) ;
#48 = FACE_OUTER_BOUND ( 'NONE', #49, .T. ) ;
#49 = EDGE_LOOP ( 'NONE', ( #71, #75, #78, #64 ) ) ;
#50 = ORIENTED_EDGE ( 'NONE', *, *, #17, .T. ) ;
#51 = LINE ( 'NONE', #158, #92 ) ;
#52 = ORIENTED_EDGE ( 'NONE', *, *, #28, .T. ) ;
#53 = ORIENTED_EDGE ( 'NONE', *, *, #20, .F. ) ;
#54 = ORIENTED_EDGE ( 'NONE', *, *, #21, .F. ) ;
#55 = EDGE_LOOP ( 'NONE', ( #63, #62, #61, #43 ) ) ;
#56 = FACE_OUTER_BOUND ( 'NONE', #59, .T. ) ;
#57 = FACE_OUTER_BOUND ( 'NONE', #82, .T. ) ;
#58 = VECTOR ( 'NONE', #142, 1000.000000000000000 ) ;
#59 = EDGE_LOOP ( 'NONE', ( #52, #67, #46, #50 ) ) ;
#60 = VECTOR ( 'NONE', #172, 1000.000000000000000 ) ;
#61 = ORIENTED_EDGE ( 'NONE', *, *, #14, .F. ) ;
#62 = ORIENTED_EDGE ( 'NONE', *, *, #22, .F. ) ;
#63 = ORIENTED_EDGE ( 'NONE', *, *, #6, .T. ) ;
#64 = ORIENTED_EDGE ( 'NONE', *, *, #22, .T. ) ;
#65 = ORIENTED_EDGE ( 'NONE', *, *, #17, .F. ) ;
#66 = ORIENTED_EDGE ( 'NONE', *, *, #9, .T. ) ;
#67 = ORIENTED_EDGE ( 'NONE', *, *, #14, .T. ) ;
#68 = FACE_OUTER_BOUND ( 'NONE', #76, .T. ) ;
#69 = VECTOR ( 'NONE', #159, 1000.000000000000000 ) ;
#70 = VECTOR ( 'NONE', #164, 1000.000000000000000 ) ;
#71 = ORIENTED_EDGE ( 'NONE', *, *, #11, .T. ) ;
#72 = LINE ( 'NONE', #163, #70 ) ;
#73 = VECTOR ( 'NONE', #161, 1000.000000000000000 ) ;
#74 = ORIENTED_EDGE ( 'NONE', *, *, #20, .T. ) ;
#75 = ORIENTED_EDGE ( 'NONE', *, *, #9, .F. ) ;
#76 = EDGE_LOOP ( 'NONE', ( #74, #54, #98, #79 ) ) ;
#77 = ORIENTED_EDGE ( 'NONE', *, *, #40, .F. ) ;
#78 = ORIENTED_EDGE ( 'NONE', *, *, #23, .F. ) ;
#79 = ORIENTED_EDGE ( 'NONE', *, *, #40, .T. ) ;
#80 = CLOSED_SHELL ( 'NONE', ( #237, #232, #233, #236, #234, #235 ) ) ;
#81 = CALENDAR_DATE ( 2012, 21, 5 ) ;
#82 = EDGE_LOOP ( 'NONE', ( #53, #93, #85, #89 ) ) ;
#83 = VECTOR ( 'NONE', #152, 1000.000000000000000 ) ;
#84 = LINE ( 'NONE', #156, #69 ) ;
#85 = ORIENTED_EDGE ( 'NONE', *, *, #11, .F. ) ;
#86 = FACE_OUTER_BOUND ( 'NONE', #55, .T. ) ;
#87 = FACE_OUTER_BOUND ( 'NONE', #140, .T. ) ;
#88 = LINE ( 'NONE', #160, #73 ) ;
#89 = ORIENTED_EDGE ( 'NONE', *, *, #6, .F. ) ;
#90 = LINE ( 'NONE', #167, #91 ) ;
#91 = VECTOR ( 'NONE', #168, 1000.000000000000000 ) ;
#92 = VECTOR ( 'NONE', #166, 1000.000000000000000 ) ;
#93 = ORIENTED_EDGE ( 'NONE', *, *, #18, .F. ) ;
#94 = APPROVAL_DATE_TIME ( #123, #31 ) ;
#95 = COORDINATED_UNIVERSAL_TIME_OFFSET ( 6, 0, .BEHIND. ) ;
#96 = APPROVAL_PERSON_ORGANIZATION ( #100, #38, #210 ) ;
#97 = VECTOR ( 'NONE', #175, 1000.000000000000000 ) ;
#98 = ORIENTED_EDGE ( 'NONE', *, *, #28, .F. ) ;
#99 = LINE ( 'NONE', #174, #97 ) ;
#100 = PERSON_AND_ORGANIZATION ( #230, #116 ) ;
#101 = VECTOR ( 'NONE', #155, 1000.000000000000000 ) ;
#102 = COORDINATED_UNIVERSAL_TIME_OFFSET ( 6, 0, .BEHIND. ) ;
#103 = LOCAL_TIME ( 16, 33, 23.00000000000000000, #102 ) ;
#104 = CALENDAR_DATE ( 2012, 21, 5 ) ;
#105 = COORDINATED_UNIVERSAL_TIME_OFFSET ( 6, 0, .BEHIND. ) ;
#106 = PERSON_AND_ORGANIZATION ( #230, #116 ) ;
#107 = PERSON_AND_ORGANIZATION ( #230, #116 ) ;
#108 = LINE ( 'NONE', #171, #60 ) ;
#109 = VECTOR ( 'NONE', #170, 1000.000000000000000 ) ;
#110 = LINE ( 'NONE', #169, #109 ) ;
#111 = LINE ( 'NONE', #151, #58 ) ;
#112 = LINE ( 'NONE', #149, #101 ) ;
#113 = LINE ( 'NONE', #144, #44 ) ;
#114 =( GEOMETRIC_REPRESENTATION_CONTEXT ( 3 ) GLOBAL_UNCERTAINTY_ASSIGNED_CONTEXT ( ( #5 ) ) GLOBAL_UNIT_ASSIGNED_CONTEXT ( ( #220, #141, #204 ) ) REPRESENTATION_CONTEXT ( 'NONE', 'WORKASPACE' ) );
#115 = SHAPE_DEFINITION_REPRESENTATION ( #1, #4 ) ;
#116 = ORGANIZATION ( 'UNSPECIFIED', 'UNSPECIFIED', '' ) ;
#117 = PERSON_AND_ORGANIZATION ( #230, #116 ) ;
#118 = PERSON_AND_ORGANIZATION ( #230, #116 ) ;
#119 = APPROVAL_PERSON_ORGANIZATION ( #118, #31, #223 ) ;
#120 = COORDINATED_UNIVERSAL_TIME_OFFSET ( 6, 0, .BEHIND. ) ;
#121 = LOCAL_TIME ( 16, 33, 23.00000000000000000, #120 ) ;
#122 = CALENDAR_DATE ( 2012, 21, 5 ) ;
#123 = DATE_AND_TIME ( #122, #121 ) ;
#124 = DATE_AND_TIME ( #81, #127 ) ;
#125 = PERSON_AND_ORGANIZATION ( #230, #116 ) ;
#126 = APPROVAL_DATE_TIME ( #129, #38 ) ;
#127 = LOCAL_TIME ( 16, 33, 23.00000000000000000, #95 ) ;
#128 = PERSON_AND_ORGANIZATION ( #230, #116 ) ;
#129 = DATE_AND_TIME ( #104, #103 ) ;
#130 = APPROVAL_DATE_TIME ( #131, #8 ) ;
#131 = DATE_AND_TIME ( #132, #133 ) ;
#132 = CALENDAR_DATE ( 2012, 21, 5 ) ;
#133 = LOCAL_TIME ( 16, 33, 23.00000000000000000, #134 ) ;
#134 = COORDINATED_UNIVERSAL_TIME_OFFSET ( 6, 0, .BEHIND. ) ;
#135 = APPROVAL_PERSON_ORGANIZATION ( #136, #8, #213 ) ;
#136 = PERSON_AND_ORGANIZATION ( #230, #116 ) ;
#137 = DATE_AND_TIME ( #138, #139 ) ;
#138 = CALENDAR_DATE ( 2012, 21, 5 ) ;
#139 = LOCAL_TIME ( 16, 33, 23.00000000000000000, #105 ) ;
#140 = EDGE_LOOP ( 'NONE', ( #47, #77, #65, #66 ) ) ;
#141 =( NAMED_UNIT ( * ) PLANE_ANGLE_UNIT ( ) SI_UNIT ( $, .RADIAN. ) );
#142 = DIRECTION ( 'NONE',  ( -0.0000000000000000000, -1.000000000000000000, -0.0000000000000000000 ) ) ;
#143 = VERTEX_POINT ( 'NONE', #177 ) ;
#144 = CARTESIAN_POINT ( 'NONE',  ( 0.0000000000000000000, 25.00000000000000000, 0.0000000000000000000 ) ) ;
#145 = VERTEX_POINT ( 'NONE', #178 ) ;
#146 = VERTEX_POINT ( 'NONE', #162 ) ;
#147 = VERTEX_POINT ( 'NONE', #179 ) ;
#148 = CARTESIAN_POINT ( 'NONE',  ( 0.0000000000000000000, 0.0000000000000000000, 0.0000000000000000000 ) ) ;
#149 = CARTESIAN_POINT ( 'NONE',  ( 50.00000000000000000, 0.0000000000000000000, 0.0000000000000000000 ) ) ;
#150 = VERTEX_POINT ( 'NONE', #173 ) ;
#151 = CARTESIAN_POINT ( 'NONE',  ( 50.00000000000000000, 25.00000000000000000, -75.00000000000000000 ) ) ;
#152 = DIRECTION ( 'NONE',  ( 1.000000000000000000, 0.0000000000000000000, 0.0000000000000000000 ) ) ;
#153 = VERTEX_POINT ( 'NONE', #180 ) ;
#154 = VERTEX_POINT ( 'NONE', #176 ) ;
#155 = DIRECTION ( 'NONE',  ( 0.0000000000000000000, 0.0000000000000000000, -1.000000000000000000 ) ) ;
#156 = CARTESIAN_POINT ( 'NONE',  ( 0.0000000000000000000, 25.00000000000000000, -75.00000000000000000 ) ) ;
#157 = DIRECTION ( 'NONE',  ( 1.000000000000000000, 0.0000000000000000000, 0.0000000000000000000 ) ) ;
#158 = CARTESIAN_POINT ( 'NONE',  ( 0.0000000000000000000, 25.00000000000000000, 0.0000000000000000000 ) ) ;
#159 = DIRECTION ( 'NONE',  ( -1.000000000000000000, -0.0000000000000000000, -0.0000000000000000000 ) ) ;
#160 = CARTESIAN_POINT ( 'NONE',  ( 0.0000000000000000000, 0.0000000000000000000, -75.00000000000000000 ) ) ;
#161 = DIRECTION ( 'NONE',  ( -1.000000000000000000, -0.0000000000000000000, -0.0000000000000000000 ) ) ;
#162 = CARTESIAN_POINT ( 'NONE',  ( 0.0000000000000000000, 0.0000000000000000000, -75.00000000000000000 ) ) ;
#163 = CARTESIAN_POINT ( 'NONE',  ( 0.0000000000000000000, 0.0000000000000000000, 0.0000000000000000000 ) ) ;
#164 = DIRECTION ( 'NONE',  ( -0.0000000000000000000, -0.0000000000000000000, 1.000000000000000000 ) ) ;
#165 = CARTESIAN_POINT ( 'NONE',  ( 0.0000000000000000000, 25.00000000000000000, 0.0000000000000000000 ) ) ;
#166 = DIRECTION ( 'NONE',  ( -0.0000000000000000000, -1.000000000000000000, -0.0000000000000000000 ) ) ;
#167 = CARTESIAN_POINT ( 'NONE',  ( 50.00000000000000000, 25.00000000000000000, 0.0000000000000000000 ) ) ;
#168 = DIRECTION ( 'NONE',  ( -0.0000000000000000000, -1.000000000000000000, -0.0000000000000000000 ) ) ;
#169 = CARTESIAN_POINT ( 'NONE',  ( 50.00000000000000000, 25.00000000000000000, 0.0000000000000000000 ) ) ;
#170 = DIRECTION ( 'NONE',  ( 0.0000000000000000000, 0.0000000000000000000, -1.000000000000000000 ) ) ;
#171 = CARTESIAN_POINT ( 'NONE',  ( 0.0000000000000000000, 25.00000000000000000, 0.0000000000000000000 ) ) ;
#172 = DIRECTION ( 'NONE',  ( -0.0000000000000000000, -0.0000000000000000000, 1.000000000000000000 ) ) ;
#173 = CARTESIAN_POINT ( 'NONE',  ( 0.0000000000000000000, 25.00000000000000000, 0.0000000000000000000 ) ) ;
#174 = CARTESIAN_POINT ( 'NONE',  ( 0.0000000000000000000, 25.00000000000000000, -75.00000000000000000 ) ) ;
#175 = DIRECTION ( 'NONE',  ( -0.0000000000000000000, -1.000000000000000000, -0.0000000000000000000 ) ) ;
#176 = CARTESIAN_POINT ( 'NONE',  ( 50.00000000000000000, 0.0000000000000000000, 0.0000000000000000000 ) ) ;
#177 = CARTESIAN_POINT ( 'NONE',  ( 50.00000000000000000, 25.00000000000000000, -75.00000000000000000 ) ) ;
#178 = CARTESIAN_POINT ( 'NONE',  ( 0.0000000000000000000, 25.00000000000000000, -75.00000000000000000 ) ) ;
#179 = CARTESIAN_POINT ( 'NONE',  ( 50.00000000000000000, 0.0000000000000000000, -75.00000000000000000 ) ) ;
#180 = CARTESIAN_POINT ( 'NONE',  ( 0.0000000000000000000, 0.0000000000000000000, 0.0000000000000000000 ) ) ;
#181 = CARTESIAN_POINT ( 'NONE',  ( 50.00000000000000000, 25.00000000000000000, 0.0000000000000000000 ) ) ;
#182 = PLANE ( 'NONE',  #29 ) ;
#183 = CARTESIAN_POINT ( 'NONE',  ( 50.00000000000000000, 25.00000000000000000, 0.0000000000000000000 ) ) ;
#184 = PLANE ( 'NONE',  #24 ) ;
#185 = CARTESIAN_POINT ( 'NONE',  ( 0.0000000000000000000, 25.00000000000000000, -75.00000000000000000 ) ) ;
#186 = DIRECTION ( 'NONE',  ( 0.0000000000000000000, 0.0000000000000000000, -1.000000000000000000 ) ) ;
#187 = DIRECTION ( 'NONE',  ( -1.000000000000000000, 0.0000000000000000000, -0.0000000000000000000 ) ) ;
#188 = CARTESIAN_POINT ( 'NONE',  ( 0.0000000000000000000, 0.0000000000000000000, -75.00000000000000000 ) ) ;
#189 = PLANE ( 'NONE',  #41 ) ;
#190 = DIRECTION ( 'NONE',  ( -1.000000000000000000, 0.0000000000000000000, 0.0000000000000000000 ) ) ;
#191 = DIRECTION ( 'NONE',  ( 0.0000000000000000000, 0.0000000000000000000, 1.000000000000000000 ) ) ;
#192 = CARTESIAN_POINT ( 'NONE',  ( 0.0000000000000000000, 25.00000000000000000, -75.00000000000000000 ) ) ;
#193 = PLANE ( 'NONE',  #19 ) ;
#194 = DIRECTION ( 'NONE',  ( 0.0000000000000000000, -1.000000000000000000, 0.0000000000000000000 ) ) ;
#195 = DIRECTION ( 'NONE',  ( 0.0000000000000000000, -0.0000000000000000000, -1.000000000000000000 ) ) ;
#196 = CARTESIAN_POINT ( 'NONE',  ( 0.0000000000000000000, 25.00000000000000000, 0.0000000000000000000 ) ) ;
#197 = PLANE ( 'NONE',  #36 ) ;
#198 = DIRECTION ( 'NONE',  ( 0.0000000000000000000, -1.000000000000000000, 0.0000000000000000000 ) ) ;
#199 = APPLICATION_CONTEXT ( 'configuration controlled 3d designs of mechanical parts and assemblies' ) ;
#200 = APPLICATION_PROTOCOL_DEFINITION ( 'international standard', 'config_control_design', 1994, #205 ) ;
#201 = APPLICATION_PROTOCOL_DEFINITION ( 'international standard', 'config_control_design', 1994, #199 ) ;
#202 = PERSON_AND_ORGANIZATION_ROLE ( 'design_supplier' ) ;
#203 = DIRECTION ( 'NONE',  ( 1.000000000000000000, -0.0000000000000000000, 0.0000000000000000000 ) ) ;
#204 =( NAMED_UNIT ( * ) SI_UNIT ( $, .STERADIAN. ) SOLID_ANGLE_UNIT ( ) );
#205 = APPLICATION_CONTEXT ( 'configuration controlled 3d designs of mechanical parts and assemblies' ) ;
#206 = DIRECTION ( 'NONE',  ( 0.0000000000000000000, 0.0000000000000000000, 1.000000000000000000 ) ) ;
#207 = APPROVAL_STATUS ( 'not_yet_approved' ) ;
#208 = PERSON_AND_ORGANIZATION_ROLE ( 'creator' ) ;
#209 = APPROVAL_STATUS ( 'not_yet_approved' ) ;
#210 = APPROVAL_ROLE ( '' ) ;
#211 = DATE_TIME_ROLE ( 'creation_date' ) ;
#212 = DIRECTION ( 'NONE',  ( 1.000000000000000000, 0.0000000000000000000, 0.0000000000000000000 ) ) ;
#213 = APPROVAL_ROLE ( '' ) ;
#214 = APPROVAL_STATUS ( 'not_yet_approved' ) ;
#215 = SECURITY_CLASSIFICATION_LEVEL ( 'unclassified' ) ;
#216 = VERTEX_POINT ( 'NONE', #181 ) ;
#217 = DIRECTION ( 'NONE',  ( 0.0000000000000000000, -0.0000000000000000000, -1.000000000000000000 ) ) ;
#218 = DATE_TIME_ROLE ( 'classification_date' ) ;
#219 = PLANE ( 'NONE',  #26 ) ;
#220 =( LENGTH_UNIT ( ) NAMED_UNIT ( * ) SI_UNIT ( .MILLI., .METRE. ) );
#221 = PERSON_AND_ORGANIZATION_ROLE ( 'creator' ) ;
#222 = CARTESIAN_POINT ( 'NONE',  ( 0.0000000000000000000, 0.0000000000000000000, 0.0000000000000000000 ) ) ;
#223 = APPROVAL_ROLE ( '' ) ;
#224 = MECHANICAL_CONTEXT ( 'NONE', #205, 'mechanical' ) ;
#225 = DIRECTION ( 'NONE',  ( 1.000000000000000000, 0.0000000000000000000, -0.0000000000000000000 ) ) ;
#226 = DIRECTION ( 'NONE',  ( 0.0000000000000000000, 0.0000000000000000000, 1.000000000000000000 ) ) ;
#227 = PERSON_AND_ORGANIZATION_ROLE ( 'design_owner' ) ;
#228 = DIRECTION ( 'NONE',  ( 0.0000000000000000000, 0.0000000000000000000, -1.000000000000000000 ) ) ;
#229 = PERSON_AND_ORGANIZATION_ROLE ( 'classification_officer' ) ;
#230 = PERSON ( 'UNSPECIFIED', 'UNSPECIFIED', 'UNSPECIFIED', ('UNSPECIFIED'), ('UNSPECIFIED'), ('UNSPECIFIED') ) ;
#231 = PRODUCT ( 'BridgeBar', 'BridgeBar', '', ( #224 ) ) ;
#232 = ADVANCED_FACE ( 'NONE', ( #86 ), #182, .F. ) ;
#233 = ADVANCED_FACE ( 'NONE', ( #48 ), #184, .F. ) ;
#234 = ADVANCED_FACE ( 'NONE', ( #56 ), #189, .F. ) ;
#235 = ADVANCED_FACE ( 'NONE', ( #57 ), #193, .T. ) ;
#236 = ADVANCED_FACE ( 'NONE', ( #87 ), #197, .F. ) ;
#237 = ADVANCED_FACE ( 'NONE', ( #68 ), #219, .F. ) ;
ENDSEC;
END-ISO-10303-21;
