999
dxflib 2.2.0.0
  0
SECTION
  2
HEADER
  9
$ACADVER
  1
AC1015
  9
$HANDSEED
  5
FFFF
  9
$SPLINESEGS
 70
8
  9
$DIMEXE
 40
0.05
  9
$DIMLUNIT
 70
2
  9
$GRIDMODE
 70
1
  9
$INSUNITS
 70
1
  9
$DIMADEC
 70
2
  9
$DIMASZ
 40
1.0
  9
$DIMGAP
 40
0.3
  9
$DIMTXT
 40
0.5
  9
$GRIDUNIT
 10
0.0
 20
0.0
  9
$DIMEXO
 40
0.01
  9
$LUPREC
 70
2
  9
$DIMAUNIT
 70
0
  9
$AUPREC
 70
2
  9
$PLIMMIN
 10
0.0
 20
0.0
  9
$LUNITS
 70
2
  9
$PLIMMAX
 10
8.2677165354330722
 20
11.6929133858267722
  9
$DIMSTYLE
  2
Standard
  9
$AUNITS
 70
0
  0
ENDSEC
  0
SECTION
  2
TABLES
  0
TABLE
  2
VPORT
  5
8
100
AcDbSymbolTable
 70
1
  0
VPORT
  5
30
100
AcDbSymbolTableRecord
100
AcDbViewportTableRecord
  2
*Active
 70
0
 10
0.0
 20
0.0
 11
1.0
 21
1.0
 12
286.3055555555554861
 22
148.5
 13
0.0
 23
0.0
 14
10.0
 24
10.0
 15
10.0
 25
10.0
 16
0.0
 26
0.0
 36
1.0
 17
0.0
 27
0.0
 37
0.0
 40
297.0
 41
1.92798353909465
 42
50.0
 43
0.0
 44
0.0
 50
0.0
 51
0.0
 71
0
 72
100
 73
1
 74
3
 75
1
 76
1
 77
0
 78
0
281
0
 65
1
110
0.0
120
0.0
130
0.0
111
1.0
121
0.0
131
0.0
112
0.0
122
1.0
132
0.0
 79
0
146
0.0
  0
ENDTAB
  0
TABLE
  2
LTYPE
  5
5
100
AcDbSymbolTable
 70
21
  0
LTYPE
  5
14
100
AcDbSymbolTableRecord
100
AcDbLinetypeTableRecord
  2
ByBlock
 70
0
  3

 72
65
 73
0
 40
0.0
  0
LTYPE
  5
15
100
AcDbSymbolTableRecord
100
AcDbLinetypeTableRecord
  2
ByLayer
 70
0
  3

 72
65
 73
0
 40
0.0
  0
LTYPE
  5
16
100
AcDbSymbolTableRecord
100
AcDbLinetypeTableRecord
  2
CONTINUOUS
 70
0
  3
Solid line
 72
65
 73
0
 40
0.0
  0
LTYPE
  5
31
100
AcDbSymbolTableRecord
100
AcDbLinetypeTableRecord
  2
DOT
 70
0
  3
Dot . . . . . . . . . . . . . . . . . . . . . .
 72
65
 73
2
 40
6.3499999999999996
 49
0.0
 74
0
 49
-6.3499999999999996
 74
0
  0
LTYPE
  5
32
100
AcDbSymbolTableRecord
100
AcDbLinetypeTableRecord
  2
DOT2
 70
0
  3
Dot (.5x) .....................................
 72
65
 73
2
 40
3.1749999999999998
 49
0.0
 74
0
 49
-3.1749999999999998
 74
0
  0
LTYPE
  5
33
100
AcDbSymbolTableRecord
100
AcDbLinetypeTableRecord
  2
DOTX2
 70
0
  3
Dot (2x) .  .  .  .  .  .  .  .  .  .  .  .  .
 72
65
 73
2
 40
12.6999999999999993
 49
0.0
 74
0
 49
-12.6999999999999993
 74
0
  0
LTYPE
  5
34
100
AcDbSymbolTableRecord
100
AcDbLinetypeTableRecord
  2
DASHED
 70
0
  3
Dashed __ __ __ __ __ __ __ __ __ __ __ __ __ _
 72
65
 73
2
 40
19.0500000000000007
 49
12.6999999999999993
 74
0
 49
-6.3499999999999996
 74
0
  0
LTYPE
  5
35
100
AcDbSymbolTableRecord
100
AcDbLinetypeTableRecord
  2
DASHED2
 70
0
  3
Dashed (.5x) _ _ _ _ _ _ _ _ _ _ _ _ _ _ _ _ _
 72
65
 73
2
 40
9.5250000000000004
 49
6.3499999999999996
 74
0
 49
-3.1749999999999998
 74
0
  0
LTYPE
  5
36
100
AcDbSymbolTableRecord
100
AcDbLinetypeTableRecord
  2
DASHEDX2
 70
0
  3
Dashed (2x) ____  ____  ____  ____  ____  ___
 72
65
 73
2
 40
38.1000000000000014
 49
25.3999999999999986
 74
0
 49
-12.6999999999999993
 74
0
  0
LTYPE
  5
37
100
AcDbSymbolTableRecord
100
AcDbLinetypeTableRecord
  2
DASHDOT
 70
0
  3
Dash dot __ . __ . __ . __ . __ . __ . __ . __
 72
65
 73
4
 40
25.3999999999999986
 49
12.6999999999999993
 74
0
 49
-6.3499999999999996
 74
0
 49
0.0
 74
0
 49
-6.3499999999999996
 74
0
  0
LTYPE
  5
38
100
AcDbSymbolTableRecord
100
AcDbLinetypeTableRecord
  2
DASHDOT2
 70
0
  3
Dash dot (.5x) _._._._._._._._._._._._._._._.
 72
65
 73
4
 40
12.6999999999999993
 49
6.3499999999999996
 74
0
 49
-3.1749999999999998
 74
0
 49
0.0
 74
0
 49
-3.1749999999999998
 74
0
  0
LTYPE
  5
39
100
AcDbSymbolTableRecord
100
AcDbLinetypeTableRecord
  2
DASHDOTX2
 70
0
  3
Dash dot (2x) ____  .  ____  .  ____  .  ___
 72
65
 73
4
 40
50.7999999999999972
 49
25.3999999999999986
 74
0
 49
-12.6999999999999993
 74
0
 49
0.0
 74
0
 49
-12.6999999999999993
 74
0
  0
LTYPE
  5
3A
100
AcDbSymbolTableRecord
100
AcDbLinetypeTableRecord
  2
DIVIDE
 70
0
  3
Divide ____ . . ____ . . ____ . . ____ . . ____
 72
65
 73
6
 40
31.75
 49
12.6999999999999993
 74
0
 49
-6.3499999999999996
 74
0
 49
0.0
 74
0
 49
-6.3499999999999996
 74
0
 49
0.0
 74
0
 49
-6.3499999999999996
 74
0
  0
LTYPE
  5
3B
100
AcDbSymbolTableRecord
100
AcDbLinetypeTableRecord
  2
DIVIDE2
 70
0
  3
Divide (.5x) __..__..__..__..__..__..__..__.._
 72
65
 73
6
 40
15.875
 49
6.3499999999999996
 74
0
 49
-3.1749999999999998
 74
0
 49
0.0
 74
0
 49
-3.1749999999999998
 74
0
 49
0.0
 74
0
 49
-3.1749999999999998
 74
0
  0
LTYPE
  5
3C
100
AcDbSymbolTableRecord
100
AcDbLinetypeTableRecord
  2
DIVIDEX2
 70
0
  3
Divide (2x) ________  .  .  ________  .  .  _
 72
65
 73
6
 40
63.5
 49
25.3999999999999986
 74
0
 49
-12.6999999999999993
 74
0
 49
0.0
 74
0
 49
-12.6999999999999993
 74
0
 49
0.0
 74
0
 49
-12.6999999999999993
 74
0
  0
LTYPE
  5
3D
100
AcDbSymbolTableRecord
100
AcDbLinetypeTableRecord
  2
CENTER
 70
0
  3
Center ____ _ ____ _ ____ _ ____ _ ____ _ ____
 72
65
 73
4
 40
50.7999999999999972
 49
31.75
 74
0
 49
-6.3499999999999996
 74
0
 49
6.3499999999999996
 74
0
 49
-6.3499999999999996
 74
0
  0
LTYPE
  5
3E
100
AcDbSymbolTableRecord
100
AcDbLinetypeTableRecord
  2
CENTER2
 70
0
  3
Center (.5x) ___ _ ___ _ ___ _ ___ _ ___ _ ___
 72
65
 73
4
 40
28.5749999999999993
 49
19.0500000000000007
 74
0
 49
-3.1749999999999998
 74
0
 49
3.1749999999999998
 74
0
 49
-3.1749999999999998
 74
0
  0
LTYPE
  5
3F
100
AcDbSymbolTableRecord
100
AcDbLinetypeTableRecord
  2
CENTERX2
 70
0
  3
Center (2x) ________  __  ________  __  _____
 72
65
 73
4
 40
101.5999999999999943
 49
63.5
 74
0
 49
-12.6999999999999993
 74
0
 49
12.6999999999999993
 74
0
 49
-12.6999999999999993
 74
0
  0
LTYPE
  5
40
100
AcDbSymbolTableRecord
100
AcDbLinetypeTableRecord
  2
BORDER
 70
0
  3
Border __ __ . __ __ . __ __ . __ __ . __ __ .
 72
65
 73
6
 40
44.4500000000000028
 49
12.6999999999999993
 74
0
 49
-6.3499999999999996
 74
0
 49
12.6999999999999993
 74
0
 49
-6.3499999999999996
 74
0
 49
0.0
 74
0
 49
-6.3499999999999996
 74
0
  0
LTYPE
  5
41
100
AcDbSymbolTableRecord
100
AcDbLinetypeTableRecord
  2
BORDER2
 70
0
  3
Border (.5x) __.__.__.__.__.__.__.__.__.__.__.
 72
65
 73
6
 40
22.2250000000000014
 49
6.3499999999999996
 74
0
 49
-3.1749999999999998
 74
0
 49
6.3499999999999996
 74
0
 49
-3.1749999999999998
 74
0
 49
0.0
 74
0
 49
-3.1749999999999998
 74
0
  0
LTYPE
  5
42
100
AcDbSymbolTableRecord
100
AcDbLinetypeTableRecord
  2
BORDERX2
 70
0
  3
Border (2x) ____  ____  .  ____  ____  .  ___
 72
65
 73
6
 40
88.9000000000000057
 49
25.3999999999999986
 74
0
 49
-12.6999999999999993
 74
0
 49
25.3999999999999986
 74
0
 49
-12.6999999999999993
 74
0
 49
0.0
 74
0
 49
-12.6999999999999993
 74
0
  0
ENDTAB
  0
TABLE
  2
LAYER
  5
2
100
AcDbSymbolTable
 70
3
  0
LAYER
  5
10
100
AcDbSymbolTableRecord
100
AcDbLayerTableRecord
  2
0
 70
0
 62
7
  6
CONTINUOUS
370
0
390
F
  0
LAYER
  5
43
100
AcDbSymbolTableRecord
100
AcDbLayerTableRecord
  2
faces
 70
0
 62
1
  6
CONTINUOUS
370
0
390
F
  0
LAYER
  5
44
100
AcDbSymbolTableRecord
100
AcDbLayerTableRecord
  2
dims verify
 70
0
 62
7
  6
CONTINUOUS
370
0
390
F
  0
ENDTAB
  0
TABLE
  2
STYLE
  5
3
100
AcDbSymbolTable
 70
1
  0
STYLE
  5
11
100
AcDbSymbolTableRecord
100
AcDbTextStyleTableRecord
  2
Standard
 70
0
 40
0.0
 41
0.75
 50
0.0
 71
0
 42
2.5
  3
txt
  4

  0
ENDTAB
  0
TABLE
  2
VIEW
  5
6
100
AcDbSymbolTable
 70
0
  0
ENDTAB
  0
TABLE
  2
UCS
  5
7
100
AcDbSymbolTable
 70
0
  0
ENDTAB
  0
TABLE
  2
APPID
  5
9
100
AcDbSymbolTable
 70
1
  0
APPID
  5
12
100
AcDbSymbolTableRecord
100
AcDbRegAppTableRecord
  2
ACAD
 70
0
  0
ENDTAB
  0
TABLE
  2
DIMSTYLE
  5
A
100
AcDbSymbolTable
 70
1
100
AcDbDimStyleTable
 71
0
  0
DIMSTYLE
105
27
100
AcDbSymbolTableRecord
100
AcDbDimStyleTableRecord
  2
Standard
 41
1.0
 42
0.01
 43
3.75
 44
0.05
 70
0
 73
0
 74
0
 77
1
 78
8
140
0.5
141
2.5
143
0.03937007874016
147
0.3
171
3
172
1
271
2
272
2
274
3
278
44
283
0
284
8
340
11
  0
ENDTAB
  0
TABLE
  2
BLOCK_RECORD
  5
1
100
AcDbSymbolTable
 70
1
  0
BLOCK_RECORD
  5
1F
100
AcDbSymbolTableRecord
100
AcDbBlockTableRecord
  2
*Model_Space
340
22
  0
BLOCK_RECORD
  5
1B
100
AcDbSymbolTableRecord
100
AcDbBlockTableRecord
  2
*Paper_Space
340
1E
  0
BLOCK_RECORD
  5
23
100
AcDbSymbolTableRecord
100
AcDbBlockTableRecord
  2
*Paper_Space0
340
26
  0
BLOCK_RECORD
  5
45
100
AcDbSymbolTableRecord
100
AcDbBlockTableRecord
  2
tux-0
340
0
  0
BLOCK_RECORD
  5
46
100
AcDbSymbolTableRecord
100
AcDbBlockTableRecord
  2
frame part 1-0
340
0
  0
BLOCK_RECORD
  5
47
100
AcDbSymbolTableRecord
100
AcDbBlockTableRecord
  2
frame part 1-1
340
0
  0
BLOCK_RECORD
  5
48
100
AcDbSymbolTableRecord
100
AcDbBlockTableRecord
  2
elongated_hole-0
340
0
  0
BLOCK_RECORD
  5
49
100
AcDbSymbolTableRecord
100
AcDbBlockTableRecord
  2
elongated_hole-1
340
0
  0
BLOCK_RECORD
  5
4A
100
AcDbSymbolTableRecord
100
AcDbBlockTableRecord
  2
elongated_hole-2
340
0
  0
BLOCK_RECORD
  5
4B
100
AcDbSymbolTableRecord
100
AcDbBlockTableRecord
  2
elongated_hole-3
340
0
  0
BLOCK_RECORD
  5
4C
100
AcDbSymbolTableRecord
100
AcDbBlockTableRecord
  2
elongated_hole-4
340
0
  0
BLOCK_RECORD
  5
4D
100
AcDbSymbolTableRecord
100
AcDbBlockTableRecord
  2
elongated_hole-5
340
0
  0
BLOCK_RECORD
  5
4E
100
AcDbSymbolTableRecord
100
AcDbBlockTableRecord
  2
elongated_hole-6
340
0
  0
BLOCK_RECORD
  5
4F
100
AcDbSymbolTableRecord
100
AcDbBlockTableRecord
  2
elongated_hole-7
340
0
  0
BLOCK_RECORD
  5
50
100
AcDbSymbolTableRecord
100
AcDbBlockTableRecord
  2
elongated_hole-8
340
0
  0
BLOCK_RECORD
  5
51
100
AcDbSymbolTableRecord
100
AcDbBlockTableRecord
  2
elongated_hole-9
340
0
  0
BLOCK_RECORD
  5
52
100
AcDbSymbolTableRecord
100
AcDbBlockTableRecord
  2
elongated_hole-10
340
0
  0
BLOCK_RECORD
  5
53
100
AcDbSymbolTableRecord
100
AcDbBlockTableRecord
  2
elongated_hole-11
340
0
  0
BLOCK_RECORD
  5
54
100
AcDbSymbolTableRecord
100
AcDbBlockTableRecord
  2
elongated_hole-12
340
0
  0
BLOCK_RECORD
  5
55
100
AcDbSymbolTableRecord
100
AcDbBlockTableRecord
  2
elongated_hole-13
340
0
  0
BLOCK_RECORD
  5
56
100
AcDbSymbolTableRecord
100
AcDbBlockTableRecord
  2
elongated_hole-14
340
0
  0
BLOCK_RECORD
  5
57
100
AcDbSymbolTableRecord
100
AcDbBlockTableRecord
  2
elongated_hole-15
340
0
  0
BLOCK_RECORD
  5
58
100
AcDbSymbolTableRecord
100
AcDbBlockTableRecord
  2
elongated_hole-16
340
0
  0
BLOCK_RECORD
  5
59
100
AcDbSymbolTableRecord
100
AcDbBlockTableRecord
  2
elongated_hole-17
340
0
  0
BLOCK_RECORD
  5
5A
100
AcDbSymbolTableRecord
100
AcDbBlockTableRecord
  2
elongated_hole-18
340
0
  0
BLOCK_RECORD
  5
5B
100
AcDbSymbolTableRecord
100
AcDbBlockTableRecord
  2
elongated_hole-19
340
0
  0
BLOCK_RECORD
  5
5C
100
AcDbSymbolTableRecord
100
AcDbBlockTableRecord
  2
elongated_hole-20
340
0
  0
BLOCK_RECORD
  5
5D
100
AcDbSymbolTableRecord
100
AcDbBlockTableRecord
  2
elongated_hole-21
340
0
  0
BLOCK_RECORD
  5
5E
100
AcDbSymbolTableRecord
100
AcDbBlockTableRecord
  2
elongated_hole-22
340
0
  0
BLOCK_RECORD
  5
5F
100
AcDbSymbolTableRecord
100
AcDbBlockTableRecord
  2
elongated_hole-23
340
0
  0
BLOCK_RECORD
  5
60
100
AcDbSymbolTableRecord
100
AcDbBlockTableRecord
  2
elongated_hole-24
340
0
  0
BLOCK_RECORD
  5
61
100
AcDbSymbolTableRecord
100
AcDbBlockTableRecord
  2
elongated_hole-25
340
0
  0
BLOCK_RECORD
  5
62
100
AcDbSymbolTableRecord
100
AcDbBlockTableRecord
  2
elongated_hole-26
340
0
  0
BLOCK_RECORD
  5
63
100
AcDbSymbolTableRecord
100
AcDbBlockTableRecord
  2
elongated_hole-27
340
0
  0
BLOCK_RECORD
  5
64
100
AcDbSymbolTableRecord
100
AcDbBlockTableRecord
  2
elongated_hole-28
340
0
  0
BLOCK_RECORD
  5
65
100
AcDbSymbolTableRecord
100
AcDbBlockTableRecord
  2
elongated_hole-29
340
0
  0
BLOCK_RECORD
  5
66
100
AcDbSymbolTableRecord
100
AcDbBlockTableRecord
  2
elongated_hole-30
340
0
  0
BLOCK_RECORD
  5
67
100
AcDbSymbolTableRecord
100
AcDbBlockTableRecord
  2
elongated_hole-31
340
0
  0
BLOCK_RECORD
  5
68
100
AcDbSymbolTableRecord
100
AcDbBlockTableRecord
  2
elongated_hole-32
340
0
  0
BLOCK_RECORD
  5
69
100
AcDbSymbolTableRecord
100
AcDbBlockTableRecord
  2
elongated_hole-33
340
0
  0
BLOCK_RECORD
  5
6A
100
AcDbSymbolTableRecord
100
AcDbBlockTableRecord
  2
elongated_hole-34
340
0
  0
BLOCK_RECORD
  5
6B
100
AcDbSymbolTableRecord
100
AcDbBlockTableRecord
  2
elongated_hole-35
340
0
  0
BLOCK_RECORD
  5
6C
100
AcDbSymbolTableRecord
100
AcDbBlockTableRecord
  2
elongated_hole-36
340
0
  0
BLOCK_RECORD
  5
6D
100
AcDbSymbolTableRecord
100
AcDbBlockTableRecord
  2
elongated_hole-37
340
0
  0
BLOCK_RECORD
  5
6E
100
AcDbSymbolTableRecord
100
AcDbBlockTableRecord
  2
elongated_hole-38
340
0
  0
BLOCK_RECORD
  5
6F
100
AcDbSymbolTableRecord
100
AcDbBlockTableRecord
  2
elongated_hole-39
340
0
  0
BLOCK_RECORD
  5
70
100
AcDbSymbolTableRecord
100
AcDbBlockTableRecord
  2
elongated_hole-40
340
0
  0
BLOCK_RECORD
  5
71
100
AcDbSymbolTableRecord
100
AcDbBlockTableRecord
  2
elongated_hole-41
340
0
  0
BLOCK_RECORD
  5
72
100
AcDbSymbolTableRecord
100
AcDbBlockTableRecord
  2
elongated_hole-42
340
0
  0
ENDTAB
  0
ENDSEC
  0
SECTION
  2
BLOCKS
  0
BLOCK
  5
20
100
AcDbEntity
  8
0
100
AcDbBlockBegin
  2
*Model_Space
 70
0
 10
0.0
 20
0.0
 30
0.0
  3
*Model_Space
  1

  0
ENDBLK
  5
21
100
AcDbEntity
  8
0
100
AcDbBlockEnd
  0
BLOCK
  5
1C
100
AcDbEntity
 67
1
  8
0
100
AcDbBlockBegin
  2
*Paper_Space
 70
0
 10
0.0
 20
0.0
 30
0.0
  3
*Paper_Space
  1

  0
ENDBLK
  5
1D
100
AcDbEntity
 67
1
  8
0
100
AcDbBlockEnd
  0
BLOCK
  5
24
100
AcDbEntity
  8
0
100
AcDbBlockBegin
  2
*Paper_Space0
 70
0
 10
0.0
 20
0.0
 30
0.0
  3
*Paper_Space0
  1

  0
ENDBLK
  5
25
100
AcDbEntity
  8
0
100
AcDbBlockEnd
  0
BLOCK
  5
73
100
AcDbEntity
  8
0
100
AcDbBlockBegin
  2
tux-0
 70
0
 10
0.0
 20
0.0
 30
0.0
  3
tux-0
  1

  0
ARC
  5
74
100
AcDbEntity
  8
0
 62
0
370
0
  6
CONTINUOUS
100
AcDbCircle
 10
0.5010635826771654
 20
1.0395522440944873
 30
0.0
 40
0.1547981102362205
100
AcDbArc
 50
105.1414259999999956
 51
177.1518250000000023
  0
ARC
  5
75
100
AcDbEntity
  8
0
 62
0
370
0
  6
CONTINUOUS
100
AcDbCircle
 10
0.507005393700787
 20
1.004106614173228
 30
0.0
 40
0.1905977952755906
100
AcDbArc
 50
39.7507739999999998
 51
104.082335999999998
  0
ARC
  5
76
100
AcDbEntity
  8
0
 62
0
370
0
  6
CONTINUOUS
100
AcDbCircle
 10
0.3230251574803162
 20
0.9427863779527552
 30
0.0
 40
0.377893779527559
100
AcDbArc
 50
1.511741
 51
28.9984949999999984
  0
ARC
  5
77
100
AcDbEntity
  8
0
 62
0
370
0
  6
CONTINUOUS
100
AcDbCircle
 10
0.8422735826771657
 20
0.9180610236220481
 30
0.0
 40
0.145678031496063
100
AcDbArc
 50
166.2219540000000109
 51
199.2306670000000111
  0
ARC
  5
78
100
AcDbEntity
  8
0
 62
0
370
0
  6
CONTINUOUS
100
AcDbCircle
 10
1.1158181889763767
 20
0.977537480314961
 30
0.0
 40
0.4249063779527559
100
AcDbArc
 50
194.649169999999998
 51
215.9062649999999906
  0
ARC
  5
79
100
AcDbEntity
  8
0
 62
0
370
0
  6
CONTINUOUS
100
AcDbCircle
 10
0.5633858267716541
 20
0.4649606299212596
 30
0.0
 40
0.3357790157480315
100
AcDbArc
 50
27.1358870000000003
 51
51.6654359999999997
  0
ARC
  5
7A
100
AcDbEntity
  8
0
 62
0
370
0
  6
CONTINUOUS
100
AcDbCircle
 10
0.4035433070866148
 20
0.4232283464566926
 30
0.0
 40
0.4983464960629921
100
AcDbArc
 50
7.4899529999999999
 51
23.0202850000000012
  0
ARC
  5
7B
100
AcDbEntity
  8
0
 62
0
370
0
  6
CONTINUOUS
100
AcDbCircle
 10
0.7392768503937006
 20
0.4408024409448821
 30
0.0
 40
0.1652987401574803
100
AcDbArc
 50
310.4211429999999723
 51
16.6588290000000008
  0
ARC
  5
7C
100
AcDbEntity
  8
0
 62
0
370
0
  6
CONTINUOUS
100
AcDbCircle
 10
0.8032937007873997
 20
0.3712790551181104
 30
0.0
 40
0.0709564173228346
100
AcDbArc
 50
218.8475039999999865
 51
307.4669489999999996
  0
ARC
  5
7D
100
AcDbEntity
  8
0
 62
0
370
0
  6
CONTINUOUS
100
AcDbCircle
 10
0.812305551181101
 20
0.3425679527559051
 30
0.0
 40
0.0661866929133858
100
AcDbArc
 50
50.583835999999998
 51
193.8076320000000123
  0
ARC
  5
7E
100
AcDbEntity
  8
0
 62
0
370
0
  6
CONTINUOUS
100
AcDbCircle
 10
1.0012303149606296
 20
0.3262795275590555
 30
0.0
 40
0.0924768110236221
100
AcDbArc
 50
187.0304720000000032
 51
222.5198059999999884
  0
ARC
  5
7F
100
AcDbEntity
  8
0
 62
0
370
0
  6
CONTINUOUS
100
AcDbCircle
 10
1.1210629921259851
 20
0.4552165354330704
 30
0.0
 40
0.2683079527559055
100
AcDbArc
 50
225.5201869999999928
 51
239.3426360000000273
  0
ARC
  5
80
100
AcDbEntity
  8
0
 62
0
370
0
  6
CONTINUOUS
100
AcDbCircle
 10
0.9699803543307084
 20
0.1968503937007871
 30
0.0
 40
0.031035157480315
100
AcDbArc
 50
297.3777160000000208
 51
62.6222950000000012
  0
ARC
  5
81
100
AcDbEntity
  8
0
 62
0
370
0
  6
CONTINUOUS
100
AcDbCircle
 10
1.0871062598425212
 20
-0.2172735826771657
 30
0.0
 40
0.3852020866141733
100
AcDbArc
 50
119.4634250000000009
 51
136.6306610000000035
  0
ARC
  5
82
100
AcDbEntity
  8
0
 62
0
370
0
  6
CONTINUOUS
100
AcDbCircle
 10
0.7463392913385825
 20
0.114138700787402
 30
0.0
 40
0.0903611023622047
100
AcDbArc
 50
211.4970399999999984
 51
312.2427670000000148
  0
ARC
  5
83
100
AcDbEntity
  8
0
 62
0
370
0
  6
CONTINUOUS
100
AcDbCircle
 10
0.8179826771653538
 20
0.116807125984252
 30
0.0
 40
0.156834094488189
100
AcDbArc
 50
157.3653260000000103
 51
198.5438540000000103
  0
ARC
  5
84
100
AcDbEntity
  8
0
 62
0
370
0
  6
CONTINUOUS
100
AcDbCircle
 10
0.1259842519685037
 20
0.2834645669291334
 30
0.0
 40
0.5574725196850394
100
AcDbArc
 50
349.0074769999999944
 51
5.2676970000000001
  0
ARC
  5
85
100
AcDbEntity
  8
0
 62
0
370
0
  6
CONTINUOUS
100
AcDbCircle
 10
0.7027559055118111
 20
0.3484251968503944
 30
0.0
 40
0.0256661417322835
100
AcDbArc
 50
57.5288090000000096
 51
212.4711910000000046
  0
ARC
  5
86
100
AcDbEntity
  8
0
 62
0
370
0
  6
CONTINUOUS
100
AcDbCircle
 10
0.2381889763779519
 20
0.25
 30
0.0
 40
0.2004590551181102
100
AcDbArc
 50
162.2767639999999858
 51
187.3343810000000076
  0
ARC
  5
87
100
AcDbEntity
  8
0
 62
0
370
0
  6
CONTINUOUS
100
AcDbCircle
 10
0.1922742519685023
 20
0.3533848031496056
 30
0.0
 40
0.0404506299212598
100
AcDbArc
 50
37.3985860000000017
 51
149.33433500000001
  0
ARC
  5
88
100
AcDbEntity
  8
0
 62
0
370
0
  6
CONTINUOUS
100
AcDbCircle
 10
-0.4921259842519703
 20
-0.2362204724409445
 30
0.0
 40
0.9437329133858268
100
AcDbArc
 50
26.7788390000000014
 51
40.6012950000000004
  0
ARC
  5
89
100
AcDbEntity
  8
0
 62
0
370
0
  6
CONTINUOUS
100
AcDbCircle
 10
0.3054930708661416
 20
0.1137045275590545
 30
0.0
 40
0.0876465354330709
100
AcDbArc
 50
321.4263310000000047
 51
59.1833719999999985
  0
ARC
  5
8A
100
AcDbEntity
  8
0
 62
0
370
0
  6
CONTINUOUS
100
AcDbCircle
 10
0.308680157480314
 20
0.1109861417322833
 30
0.0
 40
0.0834599606299213
100
AcDbArc
 50
234.1855319999999665
 51
321.5210880000000202
  0
ARC
  5
8B
100
AcDbEntity
  8
0
 62
0
370
0
  6
CONTINUOUS
100
AcDbCircle
 10
0.4143700787401592
 20
0.3223425196850389
 30
0.0
 40
0.2833573228346457
100
AcDbArc
 50
140.143462999999997
 51
156.9974060000000122
  0
ARC
  5
8C
100
AcDbEntity
  8
0
 62
0
370
0
  6
CONTINUOUS
100
AcDbCircle
 10
-0.1496062992125999
 20
0.6665657086614178
 30
0.0
 40
0.3827274803149606
100
AcDbArc
 50
334.8543700000000172
 51
350.9401550000000043
  0
ARC
  5
8D
100
AcDbEntity
  8
0
 62
0
370
0
  6
CONTINUOUS
100
AcDbCircle
 10
0.4150262598425201
 20
0.5544619291338577
 30
0.0
 40
0.1937432677165354
100
AcDbArc
 50
136.0291599999999903
 51
164.481078999999994
  0
ARC
  5
8E
100
AcDbEntity
  8
0
 62
0
370
0
  6
CONTINUOUS
100
AcDbCircle
 10
-0.0787401574803148
 20
1.0242782283464571
 30
0.0
 40
0.4878294488188976
100
AcDbArc
 50
316.5805359999999951
 51
328.811554000000001
  0
ARC
  5
8F
100
AcDbEntity
  8
0
 62
0
370
0
  6
CONTINUOUS
100
AcDbCircle
 10
0.253444881889763
 20
0.8307086614173222
 30
0.0
 40
0.1036144488188976
100
AcDbArc
 50
325.2532039999999824
 51
13.178191
  0
ARC
  5
90
100
AcDbEntity
  8
0
 62
0
370
0
  6
CONTINUOUS
100
AcDbCircle
 10
58.3208651968503915
 20
3.3169291338582667
 30
0.0
 40
58.018822874015747
100
AcDbArc
 50
182.241973999999999
 51
182.4326320000000123
  0
ARC
  5
91
100
AcDbEntity
  8
0
 62
0
370
0
  6
CONTINUOUS
100
AcDbCircle
 10
0.4555992913385829
 20
0.4144794488188985
 30
0.0
 40
0.2802794094488189
100
AcDbArc
 50
289.0853579999999852
 51
323.5682980000000271
  0
ARC
  5
92
100
AcDbEntity
  8
0
 62
0
370
0
  6
CONTINUOUS
100
AcDbCircle
 10
1.0686321653543303
 20
1.1897062204724413
 30
0.0
 40
1.1466328740157481
100
AcDbArc
 50
220.5095829999999921
 51
232.2182620000000099
  0
ARC
  5
93
100
AcDbEntity
  8
0
 62
0
370
0
  6
CONTINUOUS
100
AcDbCircle
 10
0.6240157480314963
 20
0.4822834645669296
 30
0.0
 40
0.1872666929133858
100
AcDbArc
 50
3.012788
 51
56.1428909999999988
  0
ARC
  5
94
100
AcDbEntity
  8
0
 62
0
370
0
  6
CONTINUOUS
100
AcDbCircle
 10
0.4173228346456703
 20
0.8031496062992129
 30
0.0
 40
0.0393700787401575
100
AcDbArc
 50
143.1300960000000089
 51
216.8699039999999911
  0
ARC
  5
95
100
AcDbEntity
  8
0
 62
0
370
0
  6
CONTINUOUS
100
AcDbCircle
 10
0.7441882677165346
 20
0.4993438188976373
 30
0.0
 40
0.4548910236220473
100
AcDbArc
 50
141.9800419999999974
 51
155.3625790000000109
  0
ARC
  5
96
100
AcDbEntity
  8
0
 62
0
370
0
  6
CONTINUOUS
100
AcDbCircle
 10
0.366141732283463
 20
0.6633858267716537
 30
0.0
 40
0.043707874015748
100
AcDbArc
 50
144.1623539999999934
 51
215.8376460000000066
  0
ARC
  5
97
100
AcDbEntity
  8
0
 62
0
370
0
  6
CONTINUOUS
100
AcDbCircle
 10
0.5403543307086629
 20
0.4301181102362204
 30
0.0
 40
0.2950950787401575
100
AcDbArc
 50
135.2702639999999974
 51
187.8598479999999995
  0
ARC
  5
98
100
AcDbEntity
  8
0
 62
0
370
0
  6
CONTINUOUS
100
AcDbCircle
 10
0.2832458267716547
 20
0.575896771653543
 30
0.0
 40
0.4014991338582677
100
AcDbArc
 50
11.1507780000000007
 51
32.4520419999999987
  0
ARC
  5
99
100
AcDbEntity
  8
0
 62
0
370
0
  6
CONTINUOUS
100
AcDbCircle
 10
0.5964566929133852
 20
0.8031496062992129
 30
0.0
 40
0.0281846850393701
100
AcDbArc
 50
335.2248539999999934
 51
77.9052429999999987
  0
ARC
  5
9A
100
AcDbEntity
  8
0
 62
0
370
0
  6
CONTINUOUS
100
AcDbCircle
 10
1.2792167322834658
 20
0.4182552755905515
 30
0.0
 40
0.8620211811023621
100
AcDbArc
 50
172.1873779999999954
 51
185.5660100000000057
  0
ARC
  5
9B
100
AcDbEntity
  8
0
 62
0
370
0
  6
CONTINUOUS
100
AcDbCircle
 10
0.5067879527559072
 20
0.3817540157480313
 30
0.0
 40
0.2736855118110236
100
AcDbArc
 50
44.8593219999999988
 51
78.1493990000000025
  0
ARC
  5
9C
100
AcDbEntity
  8
0
 62
0
370
0
  6
CONTINUOUS
100
AcDbCircle
 10
0.6677165354330725
 20
0.3125984251968497
 30
0.0
 40
0.3529044094488189
100
AcDbArc
 50
91.6621319999999997
 51
107.262512000000001
  0
ARC
  5
9D
100
AcDbEntity
  8
0
 62
0
370
0
  6
CONTINUOUS
100
AcDbCircle
 10
0.4116360629921267
 20
0.9796587795275595
 30
0.0
 40
0.0374654724409449
100
AcDbArc
 50
7.0420389999999999
 51
154.0333100000000002
  0
ARC
  5
9E
100
AcDbEntity
  8
0
 62
0
370
0
  6
CONTINUOUS
100
AcDbCircle
 10
0.3857231496062994
 20
0.7043099999999995
 30
0.0
 40
0.0509272440944882
100
AcDbArc
 50
202.2343140000000119
 51
274.5506899999999746
  0
ARC
  5
9F
100
AcDbEntity
  8
0
 62
0
370
0
  6
CONTINUOUS
100
AcDbCircle
 10
0.5925196850393704
 20
0.1496062992125982
 30
0.0
 40
0.5431965354330709
100
AcDbArc
 50
111.9170840000000027
 51
121.2130200000000002
  0
ARC
  5
A0
100
AcDbEntity
  8
0
 62
0
370
0
  6
CONTINUOUS
100
AcDbCircle
 10
0.3570657086614162
 20
0.2504180708661412
 30
0.0
 40
0.034270157480315
100
AcDbArc
 50
278.6243590000000268
 51
74.6427000000000049
  0
ARC
  5
A1
100
AcDbEntity
  8
0
 62
0
370
0
  6
CONTINUOUS
100
AcDbCircle
 10
0.1961942125984244
 20
0.4133858267716537
 30
0.0
 40
0.0469744881889764
100
AcDbArc
 50
155.2248539999999934
 51
224.0770870000000059
  0
ARC
  5
A2
100
AcDbEntity
  8
0
 62
0
370
0
  6
CONTINUOUS
100
AcDbCircle
 10
-0.036460118110238
 20
0.1980486220472439
 30
0.0
 40
0.0802814566929134
100
AcDbArc
 50
314.2632449999999835
 51
19.1689760000000007
  0
ARC
  5
A3
100
AcDbEntity
  8
0
 62
0
370
0
  6
CONTINUOUS
100
AcDbCircle
 10
0.0466816535433061
 20
0.1338582677165352
 30
0.0
 40
0.027923937007874
100
AcDbArc
 50
166.1223300000000052
 51
279.2726139999999759
  0
ARC
  5
A4
100
AcDbEntity
  8
0
 62
0
370
0
  6
CONTINUOUS
100
AcDbCircle
 10
0.6011508267716543
 20
1.5295275590551185
 30
0.0
 40
1.5257934645669291
100
AcDbArc
 50
248.8722689999999886
 51
256.9222720000000209
  0
ARC
  5
A5
100
AcDbEntity
  8
0
 62
0
370
0
  6
CONTINUOUS
100
AcDbCircle
 10
0.1091113779527575
 20
0.3742969685039377
 30
0.0
 40
0.0483697637795276
100
AcDbArc
 50
261.5655820000000062
 51
359.6669009999999957
  0
ARC
  5
A6
100
AcDbEntity
  8
0
 62
0
370
0
  6
CONTINUOUS
100
AcDbCircle
 10
0.1117903149606292
 20
0.1868006692913387
 30
0.0
 40
0.1399912598425197
100
AcDbArc
 50
94.0034409999999951
 51
117.4563749999999942
  0
ARC
  5
A7
100
AcDbEntity
  8
0
 62
0
370
0
  6
CONTINUOUS
100
AcDbCircle
 10
0.5275590551181111
 20
-0.5182086614173222
 30
0.0
 40
0.608810748031496
100
AcDbArc
 50
76.9185939999999988
 51
103.7120359999999977
  0
ARC
  5
A8
100
AcDbEntity
  8
0
 62
0
370
0
  6
CONTINUOUS
100
AcDbCircle
 10
0.4764150787401569
 20
0.3560763779527552
 30
0.0
 40
0.2182811023622047
100
AcDbArc
 50
243.6871949999999742
 51
288.9343870000000152
  0
ARC
  5
A9
100
AcDbEntity
  8
0
 62
0
370
0
  6
CONTINUOUS
100
AcDbCircle
 10
0.8631889370078731
 20
0.3277559055118111
 30
0.0
 40
0.047996811023622
100
AcDbArc
 50
344.5387880000000109
 51
58.7759480000000067
  0
ARC
  5
AA
100
AcDbEntity
  8
0
 62
0
370
0
  6
CONTINUOUS
100
AcDbCircle
 10
0.460137795275589
 20
0.5263287401574797
 30
0.0
 40
0.3525488582677165
100
AcDbArc
 50
339.9261169999999765
 51
354.4326479999999719
  0
ARC
  5
AB
100
AcDbEntity
  8
0
 62
0
370
0
  6
CONTINUOUS
100
AcDbCircle
 10
0.4202546456692922
 20
0.4620539370078731
 30
0.0
 40
0.3204236220472441
100
AcDbArc
 50
341.8895259999999894
 51
36.6991420000000019
  0
ARC
  5
AC
100
AcDbEntity
  8
0
 62
0
370
0
  6
CONTINUOUS
100
AcDbCircle
 10
0.7572740157480311
 20
0.4059407086614168
 30
0.0
 40
0.0542744094488189
100
AcDbArc
 50
221.3573000000000093
 51
258.9743040000000178
  0
ARC
  5
AD
100
AcDbEntity
  8
0
 62
0
370
0
  6
CONTINUOUS
100
AcDbCircle
 10
0.4673057086614172
 20
0.4440260236220475
 30
0.0
 40
0.2507717322834646
100
AcDbArc
 50
138.4866330000000119
 51
185.2003170000000125
  0
ARC
  5
AE
100
AcDbEntity
  8
0
 62
0
370
0
  6
CONTINUOUS
100
AcDbCircle
 10
0.5382270866141745
 20
0.9570738976377946
 30
0.0
 40
0.0763148818897638
100
AcDbArc
 50
311.9663699999999835
 51
62.0284580000000076
  0
ARC
  5
AF
100
AcDbEntity
  8
0
 62
0
370
0
  6
CONTINUOUS
100
AcDbCircle
 10
0.4763779527559038
 20
0.8937007874015741
 30
0.0
 40
0.0474078346456693
100
AcDbArc
 50
30.362410999999998
 51
138.366455000000002
  0
ARC
  5
B0
100
AcDbEntity
  8
0
 62
0
370
0
  6
CONTINUOUS
100
AcDbCircle
 10
0.4087926377952762
 20
0.8581739763779535
 30
0.0
 40
0.0389042125984252
100
AcDbArc
 50
116.2053449999999941
 51
233.8203739999999584
  0
ARC
  5
B1
100
AcDbEntity
  8
0
 62
0
370
0
  6
CONTINUOUS
100
AcDbCircle
 10
0.4872047244094482
 20
0.8001968503937
 30
0.0
 40
0.1332853149606299
100
AcDbArc
 50
110.308441000000002
 51
135.8235019999999906
  0
ARC
  5
B2
100
AcDbEntity
  8
0
 62
0
370
0
  6
CONTINUOUS
100
AcDbCircle
 10
0.368110236220474
 20
0.9704724409448815
 30
0.0
 40
0.0818764960629921
100
AcDbArc
 50
324.2603760000000079
 51
9.6887869999999996
  0
ARC
  5
B3
100
AcDbEntity
  8
0
 62
0
370
0
  6
CONTINUOUS
100
AcDbCircle
 10
0.4913631889763792
 20
0.9471127165354325
 30
0.0
 40
0.1235235039370079
100
AcDbArc
 50
156.6539919999999881
 51
208.8717800000000011
  0
ARC
  5
B4
100
AcDbEntity
  8
0
 62
0
370
0
  6
CONTINUOUS
100
AcDbCircle
 10
0.5203796062992119
 20
0.7735824409448817
 30
0.0
 40
0.1441147244094488
100
AcDbArc
 50
62.6389619999999994
 51
91.2309800000000024
  0
ARC
  5
B5
100
AcDbEntity
  8
0
 62
0
370
0
  6
CONTINUOUS
100
AcDbCircle
 10
0.6009688582677164
 20
0.9792088976377951
 30
0.0
 40
0.1016700393700787
100
AcDbArc
 50
188.8350680000000068
 51
217.2301030000000139
  0
ARC
  5
B6
100
AcDbEntity
  8
0
 62
0
370
0
  6
CONTINUOUS
100
AcDbCircle
 10
0.5557132283464554
 20
0.9717542519685036
 30
0.0
 40
0.0558079527559055
100
AcDbArc
 50
70.8492889999999989
 51
190.299209999999988
  0
ARC
  5
B7
100
AcDbEntity
  8
0
 62
0
370
0
  6
CONTINUOUS
100
AcDbCircle
 10
0.4061421259842533
 20
0.9626143307086608
 30
0.0
 40
0.0118110236220472
100
AcDbArc
 50
63.3159940000000034
 51
150.1225589999999954
  0
ARC
  5
B8
100
AcDbEntity
  8
0
 62
0
370
0
  6
CONTINUOUS
100
AcDbCircle
 10
0.3959801181102378
 20
0.9423953543307082
 30
0.0
 40
0.0344400393700787
100
AcDbArc
 50
344.2913510000000201
 51
63.3159940000000034
  0
ARC
  5
B9
100
AcDbEntity
  8
0
 62
0
370
0
  6
CONTINUOUS
100
AcDbCircle
 10
0.4370078740157481
 20
0.9448818897637796
 30
0.0
 40
0.0474078346456693
100
AcDbArc
 50
150.1225589999999954
 51
232.2633209999999906
  0
ARC
  5
BA
100
AcDbEntity
  8
0
 62
0
370
0
  6
CONTINUOUS
100
AcDbCircle
 10
0.5595619291338565
 20
0.9679348425196856
 30
0.0
 40
0.0118110236220472
100
AcDbArc
 50
46.3694460000000035
 51
103.1804280000000063
  0
ARC
  5
BB
100
AcDbEntity
  8
0
 62
0
370
0
  6
CONTINUOUS
100
AcDbCircle
 10
0.5649606299212593
 20
0.9448818897637796
 30
0.0
 40
0.0354877165354331
100
AcDbArc
 50
103.1804280000000063
 51
235.6251679999999737
  0
ARC
  5
BC
100
AcDbEntity
  8
0
 62
0
370
0
  6
CONTINUOUS
100
AcDbCircle
 10
0.5413385826771666
 20
0.9488188976377963
 30
0.0
 40
0.0382214173228346
100
AcDbArc
 50
291.8327939999999785
 51
46.3694460000000035
  0
ARC
  5
BD
100
AcDbEntity
  8
0
 62
0
370
0
  6
CONTINUOUS
100
AcDbCircle
 10
0.5884063779527544
 20
0.8448694094488189
 30
0.0
 40
0.0118110236220472
100
AcDbArc
 50
294.0325930000000199
 51
308.9663090000000238
  0
ARC
  5
BE
100
AcDbEntity
  8
0
 62
0
370
0
  6
CONTINUOUS
100
AcDbCircle
 10
0.5714285826771643
 20
0.8658605118110234
 30
0.0
 40
0.0388086614173228
100
AcDbArc
 50
308.9663090000000238
 51
66.9649579999999958
  0
ARC
  5
BF
100
AcDbEntity
  8
0
 62
0
370
0
  6
CONTINUOUS
100
AcDbCircle
 10
0.4325924015748015
 20
0.8303139370078743
 30
0.0
 40
0.0118110236220472
100
AcDbArc
 50
244.8093409999999892
 51
261.6190189999999802
  0
ARC
  5
C0
100
AcDbEntity
  8
0
 62
0
370
0
  6
CONTINUOUS
100
AcDbCircle
 10
0.5034001574803142
 20
0.9808518110236228
 30
0.0
 40
0.1781702362204724
100
AcDbArc
 50
225.2441560000000038
 51
244.8093409999999892
  0
ARC
  5
C1
100
AcDbEntity
  8
0
 62
0
370
0
  6
CONTINUOUS
100
AcDbCircle
 10
0.5169494094488201
 20
0.8239638582677173
 30
0.0
 40
0.0118110236220472
100
AcDbArc
 50
110.9201199999999972
 51
120.3219600000000042
  0
ARC
  5
C2
100
AcDbEntity
  8
0
 62
0
370
0
  6
CONTINUOUS
100
AcDbCircle
 10
0.4488188976377963
 20
0.9404527559055111
 30
0.0
 40
0.1231387401574803
100
AcDbArc
 50
261.6190189999999802
 51
300.32195999999999
  0
ARC
  5
C3
100
AcDbEntity
  8
0
 62
0
370
0
  6
CONTINUOUS
100
AcDbCircle
 10
0.3889201181102351
 20
1.1588864173228348
 30
0.0
 40
0.3467480708661417
100
AcDbArc
 50
290.9201350000000161
 51
304.7597959999999944
  0
ARC
  5
C4
100
AcDbEntity
  8
0
 62
0
370
0
  6
CONTINUOUS
100
AcDbCircle
 10
0.4480126377952764
 20
0.8184472834645664
 30
0.0
 40
0.0393700787401575
100
AcDbArc
 50
218.7462920000000111
 51
251.5650789999999688
  0
ARC
  5
C5
100
AcDbEntity
  8
0
 62
0
370
0
  6
CONTINUOUS
100
AcDbCircle
 10
0.4704724409448815
 20
0.8858267716535426
 30
0.0
 40
0.1103942913385827
100
AcDbArc
 50
251.5650789999999688
 51
291.9911190000000261
  0
ARC
  5
C6
100
AcDbEntity
  8
0
 62
0
370
0
  6
CONTINUOUS
100
AcDbCircle
 10
0.2106299212598408
 20
0.6279527559055111
 30
0.0
 40
0.2649960236220472
100
AcDbArc
 50
38.7462919999999968
 51
48.6138800000000018
  0
ARC
  5
C7
100
AcDbEntity
  8
0
 62
0
370
0
  6
CONTINUOUS
100
AcDbCircle
 10
0.7479983858267722
 20
0.4943868503937008
 30
0.0
 40
0.3732966141732283
100
AcDbArc
 50
114.4963300000000004
 51
129.2501070000000141
  0
ARC
  5
C8
100
AcDbEntity
  8
0
 62
0
370
0
  6
CONTINUOUS
100
AcDbCircle
 10
0.3520882677165353
 20
0.3619355905511803
 30
0.0
 40
0.1457516929133858
100
AcDbArc
 50
263.5004579999999805
 51
273.9800420000000258
  0
ARC
  5
C9
100
AcDbEntity
  8
0
 62
0
370
0
  6
CONTINUOUS
100
AcDbCircle
 10
1.1394008267716522
 20
-0.1921476771653552
 30
0.0
 40
0.3933310629921259
100
AcDbArc
 50
113.2315830000000005
 51
127.926872000000003
  0
ARC
  5
CA
100
AcDbEntity
  8
0
 62
0
370
0
  6
CONTINUOUS
100
AcDbCircle
 10
0.3585421653543293
 20
0.9448791732283457
 30
0.0
 40
0.0715724803149606
100
AcDbArc
 50
337.9531559999999786
 51
350.5036929999999984
  0
ENDBLK
  5
CB
100
AcDbEntity
  8
0
100
AcDbBlockEnd
  0
BLOCK
  5
CC
100
AcDbEntity
  8
0
100
AcDbBlockBegin
  2
frame part 1-0
 70
0
 10
0.0
 20
0.0
 30
0.0
  3
frame part 1-0
  1

  0
ENDBLK
  5
CD
100
AcDbEntity
  8
0
100
AcDbBlockEnd
  0
BLOCK
  5
CE
100
AcDbEntity
  8
0
100
AcDbBlockBegin
  2
frame part 1-1
 70
0
 10
0.0
 20
0.0
 30
0.0
  3
frame part 1-1
  1

  0
ENDBLK
  5
CF
100
AcDbEntity
  8
0
100
AcDbBlockEnd
  0
BLOCK
  5
D0
100
AcDbEntity
  8
0
100
AcDbBlockBegin
  2
elongated_hole-0
 70
0
 10
0.0
 20
0.0
 30
0.0
  3
elongated_hole-0
  1

  0
ARC
  5
D1
100
AcDbEntity
  8
0
 62
1
370
-1
  6
CONTINUOUS
100
AcDbCircle
 10
-0.035816677078337
 20
0.320775380184152
 30
0.0
 40
0.3799999999999955
100
AcDbArc
 50
0.0
 51
179.999999999999801
  0
ARC
  5
D2
100
AcDbEntity
  8
0
 62
1
370
-1
  6
CONTINUOUS
100
AcDbCircle
 10
-0.035816677078337
 20
-0.439224619815846
 30
0.0
 40
0.3799999999999955
100
AcDbArc
 50
180.000000000000199
 51
0.0
  0
LINE
  5
D3
100
AcDbEntity
100
AcDbLine
  8
0
 62
1
370
-1
  6
CONTINUOUS
 10
-0.4158166770783325
 20
0.3207753801841537
 30
0.0
 11
-0.4158166770783325
 21
-0.4392246198158478
 31
0.0
  0
LINE
  5
D4
100
AcDbEntity
100
AcDbLine
  8
0
 62
1
370
-1
  6
CONTINUOUS
 10
0.3441833229216655
 20
-0.439224619815846
 30
0.0
 11
0.3441833229216655
 21
0.320775380184152
 31
0.0
  0
ENDBLK
  5
D5
100
AcDbEntity
  8
0
100
AcDbBlockEnd
  0
BLOCK
  5
D6
100
AcDbEntity
  8
0
100
AcDbBlockBegin
  2
elongated_hole-1
 70
0
 10
0.0
 20
0.0
 30
0.0
  3
elongated_hole-1
  1

  0
ARC
  5
D7
100
AcDbEntity
  8
0
 62
1
370
-1
  6
CONTINUOUS
100
AcDbCircle
 10
-0.035816677078337
 20
0.320775380184152
 30
0.0
 40
0.3799999999999955
100
AcDbArc
 50
0.0
 51
179.999999999999801
  0
ARC
  5
D8
100
AcDbEntity
  8
0
 62
1
370
-1
  6
CONTINUOUS
100
AcDbCircle
 10
-0.035816677078337
 20
-0.439224619815846
 30
0.0
 40
0.3799999999999955
100
AcDbArc
 50
180.000000000000199
 51
0.0
  0
LINE
  5
D9
100
AcDbEntity
100
AcDbLine
  8
0
 62
1
370
-1
  6
CONTINUOUS
 10
-0.4158166770783325
 20
0.3207753801841537
 30
0.0
 11
-0.4158166770783325
 21
-0.4392246198158478
 31
0.0
  0
LINE
  5
DA
100
AcDbEntity
100
AcDbLine
  8
0
 62
1
370
-1
  6
CONTINUOUS
 10
0.3441833229216655
 20
-0.439224619815846
 30
0.0
 11
0.3441833229216655
 21
0.320775380184152
 31
0.0
  0
ENDBLK
  5
DB
100
AcDbEntity
  8
0
100
AcDbBlockEnd
  0
BLOCK
  5
DC
100
AcDbEntity
  8
0
100
AcDbBlockBegin
  2
elongated_hole-2
 70
0
 10
0.0
 20
0.0
 30
0.0
  3
elongated_hole-2
  1

  0
ARC
  5
DD
100
AcDbEntity
  8
0
 62
1
370
-1
  6
CONTINUOUS
100
AcDbCircle
 10
-0.035816677078337
 20
0.320775380184152
 30
0.0
 40
0.3799999999999955
100
AcDbArc
 50
0.0
 51
179.999999999999801
  0
ARC
  5
DE
100
AcDbEntity
  8
0
 62
1
370
-1
  6
CONTINUOUS
100
AcDbCircle
 10
-0.035816677078337
 20
-0.439224619815846
 30
0.0
 40
0.3799999999999955
100
AcDbArc
 50
180.000000000000199
 51
0.0
  0
LINE
  5
DF
100
AcDbEntity
100
AcDbLine
  8
0
 62
1
370
-1
  6
CONTINUOUS
 10
-0.4158166770783325
 20
0.3207753801841537
 30
0.0
 11
-0.4158166770783325
 21
-0.4392246198158478
 31
0.0
  0
LINE
  5
E0
100
AcDbEntity
100
AcDbLine
  8
0
 62
1
370
-1
  6
CONTINUOUS
 10
0.3441833229216655
 20
-0.439224619815846
 30
0.0
 11
0.3441833229216655
 21
0.320775380184152
 31
0.0
  0
ENDBLK
  5
E1
100
AcDbEntity
  8
0
100
AcDbBlockEnd
  0
BLOCK
  5
E2
100
AcDbEntity
  8
0
100
AcDbBlockBegin
  2
elongated_hole-3
 70
0
 10
0.0
 20
0.0
 30
0.0
  3
elongated_hole-3
  1

  0
ARC
  5
E3
100
AcDbEntity
  8
0
 62
1
370
-1
  6
CONTINUOUS
100
AcDbCircle
 10
-0.035816677078337
 20
0.320775380184152
 30
0.0
 40
0.3799999999999955
100
AcDbArc
 50
0.0
 51
179.999999999999801
  0
ARC
  5
E4
100
AcDbEntity
  8
0
 62
1
370
-1
  6
CONTINUOUS
100
AcDbCircle
 10
-0.035816677078337
 20
-0.439224619815846
 30
0.0
 40
0.3799999999999955
100
AcDbArc
 50
180.000000000000199
 51
0.0
  0
LINE
  5
E5
100
AcDbEntity
100
AcDbLine
  8
0
 62
1
370
-1
  6
CONTINUOUS
 10
-0.4158166770783325
 20
0.3207753801841537
 30
0.0
 11
-0.4158166770783325
 21
-0.4392246198158478
 31
0.0
  0
LINE
  5
E6
100
AcDbEntity
100
AcDbLine
  8
0
 62
1
370
-1
  6
CONTINUOUS
 10
0.3441833229216655
 20
-0.439224619815846
 30
0.0
 11
0.3441833229216655
 21
0.320775380184152
 31
0.0
  0
ENDBLK
  5
E7
100
AcDbEntity
  8
0
100
AcDbBlockEnd
  0
BLOCK
  5
E8
100
AcDbEntity
  8
0
100
AcDbBlockBegin
  2
elongated_hole-4
 70
0
 10
0.0
 20
0.0
 30
0.0
  3
elongated_hole-4
  1

  0
ARC
  5
E9
100
AcDbEntity
  8
0
 62
1
370
-1
  6
CONTINUOUS
100
AcDbCircle
 10
-0.035816677078337
 20
0.320775380184152
 30
0.0
 40
0.3799999999999955
100
AcDbArc
 50
0.0
 51
179.999999999999801
  0
ARC
  5
EA
100
AcDbEntity
  8
0
 62
1
370
-1
  6
CONTINUOUS
100
AcDbCircle
 10
-0.035816677078337
 20
-0.439224619815846
 30
0.0
 40
0.3799999999999955
100
AcDbArc
 50
180.000000000000199
 51
0.0
  0
LINE
  5
EB
100
AcDbEntity
100
AcDbLine
  8
0
 62
1
370
-1
  6
CONTINUOUS
 10
-0.4158166770783325
 20
0.3207753801841537
 30
0.0
 11
-0.4158166770783325
 21
-0.4392246198158478
 31
0.0
  0
LINE
  5
EC
100
AcDbEntity
100
AcDbLine
  8
0
 62
1
370
-1
  6
CONTINUOUS
 10
0.3441833229216655
 20
-0.439224619815846
 30
0.0
 11
0.3441833229216655
 21
0.320775380184152
 31
0.0
  0
ENDBLK
  5
ED
100
AcDbEntity
  8
0
100
AcDbBlockEnd
  0
BLOCK
  5
EE
100
AcDbEntity
  8
0
100
AcDbBlockBegin
  2
elongated_hole-5
 70
0
 10
0.0
 20
0.0
 30
0.0
  3
elongated_hole-5
  1

  0
ARC
  5
EF
100
AcDbEntity
  8
0
 62
1
370
-1
  6
CONTINUOUS
100
AcDbCircle
 10
-0.035816677078337
 20
0.320775380184152
 30
0.0
 40
0.3799999999999955
100
AcDbArc
 50
0.0
 51
179.999999999999801
  0
ARC
  5
F0
100
AcDbEntity
  8
0
 62
1
370
-1
  6
CONTINUOUS
100
AcDbCircle
 10
-0.035816677078337
 20
-0.439224619815846
 30
0.0
 40
0.3799999999999955
100
AcDbArc
 50
180.000000000000199
 51
0.0
  0
LINE
  5
F1
100
AcDbEntity
100
AcDbLine
  8
0
 62
1
370
-1
  6
CONTINUOUS
 10
-0.4158166770783325
 20
0.3207753801841537
 30
0.0
 11
-0.4158166770783325
 21
-0.4392246198158478
 31
0.0
  0
LINE
  5
F2
100
AcDbEntity
100
AcDbLine
  8
0
 62
1
370
-1
  6
CONTINUOUS
 10
0.3441833229216655
 20
-0.439224619815846
 30
0.0
 11
0.3441833229216655
 21
0.320775380184152
 31
0.0
  0
ENDBLK
  5
F3
100
AcDbEntity
  8
0
100
AcDbBlockEnd
  0
BLOCK
  5
F4
100
AcDbEntity
  8
0
100
AcDbBlockBegin
  2
elongated_hole-6
 70
0
 10
0.0
 20
0.0
 30
0.0
  3
elongated_hole-6
  1

  0
ARC
  5
F5
100
AcDbEntity
  8
0
 62
1
370
-1
  6
CONTINUOUS
100
AcDbCircle
 10
-0.035816677078337
 20
0.320775380184152
 30
0.0
 40
0.3799999999999955
100
AcDbArc
 50
0.0
 51
179.999999999999801
  0
ARC
  5
F6
100
AcDbEntity
  8
0
 62
1
370
-1
  6
CONTINUOUS
100
AcDbCircle
 10
-0.035816677078337
 20
-0.439224619815846
 30
0.0
 40
0.3799999999999955
100
AcDbArc
 50
180.000000000000199
 51
0.0
  0
LINE
  5
F7
100
AcDbEntity
100
AcDbLine
  8
0
 62
1
370
-1
  6
CONTINUOUS
 10
-0.4158166770783325
 20
0.3207753801841537
 30
0.0
 11
-0.4158166770783325
 21
-0.4392246198158478
 31
0.0
  0
LINE
  5
F8
100
AcDbEntity
100
AcDbLine
  8
0
 62
1
370
-1
  6
CONTINUOUS
 10
0.3441833229216655
 20
-0.439224619815846
 30
0.0
 11
0.3441833229216655
 21
0.320775380184152
 31
0.0
  0
ENDBLK
  5
F9
100
AcDbEntity
  8
0
100
AcDbBlockEnd
  0
BLOCK
  5
FA
100
AcDbEntity
  8
0
100
AcDbBlockBegin
  2
elongated_hole-7
 70
0
 10
0.0
 20
0.0
 30
0.0
  3
elongated_hole-7
  1

  0
ARC
  5
FB
100
AcDbEntity
  8
0
 62
1
370
-1
  6
CONTINUOUS
100
AcDbCircle
 10
-0.035816677078337
 20
0.320775380184152
 30
0.0
 40
0.3799999999999955
100
AcDbArc
 50
0.0
 51
179.999999999999801
  0
ARC
  5
FC
100
AcDbEntity
  8
0
 62
1
370
-1
  6
CONTINUOUS
100
AcDbCircle
 10
-0.035816677078337
 20
-0.439224619815846
 30
0.0
 40
0.3799999999999955
100
AcDbArc
 50
180.000000000000199
 51
0.0
  0
LINE
  5
FD
100
AcDbEntity
100
AcDbLine
  8
0
 62
1
370
-1
  6
CONTINUOUS
 10
-0.4158166770783325
 20
0.320775380184152
 30
0.0
 11
-0.4158166770783325
 21
-0.439224619815846
 31
0.0
  0
LINE
  5
FE
100
AcDbEntity
100
AcDbLine
  8
0
 62
1
370
-1
  6
CONTINUOUS
 10
0.3441833229216655
 20
-0.439224619815846
 30
0.0
 11
0.3441833229216655
 21
0.320775380184152
 31
0.0
  0
ENDBLK
  5
FF
100
AcDbEntity
  8
0
100
AcDbBlockEnd
  0
BLOCK
  5
100
100
AcDbEntity
  8
0
100
AcDbBlockBegin
  2
elongated_hole-8
 70
0
 10
0.0
 20
0.0
 30
0.0
  3
elongated_hole-8
  1

  0
ARC
  5
101
100
AcDbEntity
  8
0
 62
1
370
-1
  6
CONTINUOUS
100
AcDbCircle
 10
-0.035816677078337
 20
0.320775380184152
 30
0.0
 40
0.3799999999999955
100
AcDbArc
 50
0.0
 51
179.999999999999801
  0
ARC
  5
102
100
AcDbEntity
  8
0
 62
1
370
-1
  6
CONTINUOUS
100
AcDbCircle
 10
-0.035816677078337
 20
-0.439224619815846
 30
0.0
 40
0.3799999999999955
100
AcDbArc
 50
180.000000000000199
 51
0.0
  0
LINE
  5
103
100
AcDbEntity
100
AcDbLine
  8
0
 62
1
370
-1
  6
CONTINUOUS
 10
-0.4158166770783325
 20
0.3207753801841537
 30
0.0
 11
-0.4158166770783325
 21
-0.4392246198158478
 31
0.0
  0
LINE
  5
104
100
AcDbEntity
100
AcDbLine
  8
0
 62
1
370
-1
  6
CONTINUOUS
 10
0.3441833229216655
 20
-0.439224619815846
 30
0.0
 11
0.3441833229216655
 21
0.320775380184152
 31
0.0
  0
ENDBLK
  5
105
100
AcDbEntity
  8
0
100
AcDbBlockEnd
  0
BLOCK
  5
106
100
AcDbEntity
  8
0
100
AcDbBlockBegin
  2
elongated_hole-9
 70
0
 10
0.0
 20
0.0
 30
0.0
  3
elongated_hole-9
  1

  0
ARC
  5
107
100
AcDbEntity
  8
0
 62
1
370
-1
  6
CONTINUOUS
100
AcDbCircle
 10
-0.035816677078337
 20
0.320775380184152
 30
0.0
 40
0.3799999999999955
100
AcDbArc
 50
0.0
 51
179.999999999999801
  0
ARC
  5
108
100
AcDbEntity
  8
0
 62
1
370
-1
  6
CONTINUOUS
100
AcDbCircle
 10
-0.035816677078337
 20
-0.439224619815846
 30
0.0
 40
0.3799999999999955
100
AcDbArc
 50
180.000000000000199
 51
0.0
  0
LINE
  5
109
100
AcDbEntity
100
AcDbLine
  8
0
 62
1
370
-1
  6
CONTINUOUS
 10
-0.4158166770783325
 20
0.3207753801841537
 30
0.0
 11
-0.4158166770783325
 21
-0.4392246198158478
 31
0.0
  0
LINE
  5
10A
100
AcDbEntity
100
AcDbLine
  8
0
 62
1
370
-1
  6
CONTINUOUS
 10
0.3441833229216655
 20
-0.439224619815846
 30
0.0
 11
0.3441833229216655
 21
0.320775380184152
 31
0.0
  0
ENDBLK
  5
10B
100
AcDbEntity
  8
0
100
AcDbBlockEnd
  0
BLOCK
  5
10C
100
AcDbEntity
  8
0
100
AcDbBlockBegin
  2
elongated_hole-10
 70
0
 10
0.0
 20
0.0
 30
0.0
  3
elongated_hole-10
  1

  0
ARC
  5
10D
100
AcDbEntity
  8
0
 62
1
370
-1
  6
CONTINUOUS
100
AcDbCircle
 10
-0.035816677078337
 20
0.320775380184152
 30
0.0
 40
0.3799999999999955
100
AcDbArc
 50
0.0
 51
179.999999999999801
  0
ARC
  5
10E
100
AcDbEntity
  8
0
 62
1
370
-1
  6
CONTINUOUS
100
AcDbCircle
 10
-0.035816677078337
 20
-0.439224619815846
 30
0.0
 40
0.3799999999999955
100
AcDbArc
 50
180.000000000000199
 51
0.0
  0
LINE
  5
10F
100
AcDbEntity
100
AcDbLine
  8
0
 62
1
370
-1
  6
CONTINUOUS
 10
-0.4158166770783325
 20
0.3207753801841537
 30
0.0
 11
-0.4158166770783325
 21
-0.4392246198158478
 31
0.0
  0
LINE
  5
110
100
AcDbEntity
100
AcDbLine
  8
0
 62
1
370
-1
  6
CONTINUOUS
 10
0.3441833229216655
 20
-0.439224619815846
 30
0.0
 11
0.3441833229216655
 21
0.320775380184152
 31
0.0
  0
ENDBLK
  5
111
100
AcDbEntity
  8
0
100
AcDbBlockEnd
  0
BLOCK
  5
112
100
AcDbEntity
  8
0
100
AcDbBlockBegin
  2
elongated_hole-11
 70
0
 10
0.0
 20
0.0
 30
0.0
  3
elongated_hole-11
  1

  0
ARC
  5
113
100
AcDbEntity
  8
0
 62
1
370
-1
  6
CONTINUOUS
100
AcDbCircle
 10
-0.035816677078337
 20
0.320775380184152
 30
0.0
 40
0.3799999999999955
100
AcDbArc
 50
0.0
 51
179.999999999999801
  0
ARC
  5
114
100
AcDbEntity
  8
0
 62
1
370
-1
  6
CONTINUOUS
100
AcDbCircle
 10
-0.035816677078337
 20
-0.439224619815846
 30
0.0
 40
0.3799999999999955
100
AcDbArc
 50
180.000000000000199
 51
0.0
  0
LINE
  5
115
100
AcDbEntity
100
AcDbLine
  8
0
 62
1
370
-1
  6
CONTINUOUS
 10
-0.4158166770783325
 20
0.320775380184152
 30
0.0
 11
-0.4158166770783325
 21
-0.439224619815846
 31
0.0
  0
LINE
  5
116
100
AcDbEntity
100
AcDbLine
  8
0
 62
1
370
-1
  6
CONTINUOUS
 10
0.3441833229216655
 20
-0.439224619815846
 30
0.0
 11
0.3441833229216655
 21
0.320775380184152
 31
0.0
  0
ENDBLK
  5
117
100
AcDbEntity
  8
0
100
AcDbBlockEnd
  0
BLOCK
  5
118
100
AcDbEntity
  8
0
100
AcDbBlockBegin
  2
elongated_hole-12
 70
0
 10
0.0
 20
0.0
 30
0.0
  3
elongated_hole-12
  1

  0
ARC
  5
119
100
AcDbEntity
  8
0
 62
1
370
-1
  6
CONTINUOUS
100
AcDbCircle
 10
-0.035816677078337
 20
0.320775380184152
 30
0.0
 40
0.3799999999999955
100
AcDbArc
 50
0.0
 51
179.999999999999801
  0
ARC
  5
11A
100
AcDbEntity
  8
0
 62
1
370
-1
  6
CONTINUOUS
100
AcDbCircle
 10
-0.035816677078337
 20
-0.439224619815846
 30
0.0
 40
0.3799999999999955
100
AcDbArc
 50
180.000000000000199
 51
0.0
  0
LINE
  5
11B
100
AcDbEntity
100
AcDbLine
  8
0
 62
1
370
-1
  6
CONTINUOUS
 10
-0.4158166770783325
 20
0.320775380184152
 30
0.0
 11
-0.4158166770783325
 21
-0.439224619815846
 31
0.0
  0
LINE
  5
11C
100
AcDbEntity
100
AcDbLine
  8
0
 62
1
370
-1
  6
CONTINUOUS
 10
0.3441833229216655
 20
-0.439224619815846
 30
0.0
 11
0.3441833229216655
 21
0.320775380184152
 31
0.0
  0
ENDBLK
  5
11D
100
AcDbEntity
  8
0
100
AcDbBlockEnd
  0
BLOCK
  5
11E
100
AcDbEntity
  8
0
100
AcDbBlockBegin
  2
elongated_hole-13
 70
0
 10
0.0
 20
0.0
 30
0.0
  3
elongated_hole-13
  1

  0
ARC
  5
11F
100
AcDbEntity
  8
0
 62
1
370
-1
  6
CONTINUOUS
100
AcDbCircle
 10
-0.035816677078337
 20
0.320775380184152
 30
0.0
 40
0.3799999999999955
100
AcDbArc
 50
0.0
 51
179.999999999999801
  0
ARC
  5
120
100
AcDbEntity
  8
0
 62
1
370
-1
  6
CONTINUOUS
100
AcDbCircle
 10
-0.035816677078337
 20
-0.439224619815846
 30
0.0
 40
0.3799999999999955
100
AcDbArc
 50
180.000000000000199
 51
0.0
  0
LINE
  5
121
100
AcDbEntity
100
AcDbLine
  8
0
 62
1
370
-1
  6
CONTINUOUS
 10
-0.4158166770783325
 20
0.320775380184152
 30
0.0
 11
-0.4158166770783325
 21
-0.439224619815846
 31
0.0
  0
LINE
  5
122
100
AcDbEntity
100
AcDbLine
  8
0
 62
1
370
-1
  6
CONTINUOUS
 10
0.3441833229216655
 20
-0.439224619815846
 30
0.0
 11
0.3441833229216655
 21
0.320775380184152
 31
0.0
  0
ENDBLK
  5
123
100
AcDbEntity
  8
0
100
AcDbBlockEnd
  0
BLOCK
  5
124
100
AcDbEntity
  8
0
100
AcDbBlockBegin
  2
elongated_hole-14
 70
0
 10
0.0
 20
0.0
 30
0.0
  3
elongated_hole-14
  1

  0
ARC
  5
125
100
AcDbEntity
  8
0
 62
1
370
-1
  6
CONTINUOUS
100
AcDbCircle
 10
-0.035816677078337
 20
0.320775380184152
 30
0.0
 40
0.3799999999999955
100
AcDbArc
 50
0.0
 51
179.999999999999801
  0
ARC
  5
126
100
AcDbEntity
  8
0
 62
1
370
-1
  6
CONTINUOUS
100
AcDbCircle
 10
-0.035816677078337
 20
-0.439224619815846
 30
0.0
 40
0.3799999999999955
100
AcDbArc
 50
180.000000000000199
 51
0.0
  0
LINE
  5
127
100
AcDbEntity
100
AcDbLine
  8
0
 62
1
370
-1
  6
CONTINUOUS
 10
-0.4158166770783325
 20
0.3207753801841537
 30
0.0
 11
-0.4158166770783325
 21
-0.4392246198158478
 31
0.0
  0
LINE
  5
128
100
AcDbEntity
100
AcDbLine
  8
0
 62
1
370
-1
  6
CONTINUOUS
 10
0.3441833229216655
 20
-0.439224619815846
 30
0.0
 11
0.3441833229216655
 21
0.320775380184152
 31
0.0
  0
ENDBLK
  5
129
100
AcDbEntity
  8
0
100
AcDbBlockEnd
  0
BLOCK
  5
12A
100
AcDbEntity
  8
0
100
AcDbBlockBegin
  2
elongated_hole-15
 70
0
 10
0.0
 20
0.0
 30
0.0
  3
elongated_hole-15
  1

  0
ARC
  5
12B
100
AcDbEntity
  8
0
 62
1
370
-1
  6
CONTINUOUS
100
AcDbCircle
 10
-0.035816677078337
 20
0.320775380184152
 30
0.0
 40
0.3799999999999955
100
AcDbArc
 50
0.0
 51
179.999999999999801
  0
ARC
  5
12C
100
AcDbEntity
  8
0
 62
1
370
-1
  6
CONTINUOUS
100
AcDbCircle
 10
-0.035816677078337
 20
-0.439224619815846
 30
0.0
 40
0.3799999999999955
100
AcDbArc
 50
180.000000000000199
 51
0.0
  0
LINE
  5
12D
100
AcDbEntity
100
AcDbLine
  8
0
 62
1
370
-1
  6
CONTINUOUS
 10
-0.4158166770783325
 20
0.3207753801841537
 30
0.0
 11
-0.4158166770783325
 21
-0.4392246198158478
 31
0.0
  0
LINE
  5
12E
100
AcDbEntity
100
AcDbLine
  8
0
 62
1
370
-1
  6
CONTINUOUS
 10
0.3441833229216655
 20
-0.439224619815846
 30
0.0
 11
0.3441833229216655
 21
0.320775380184152
 31
0.0
  0
ENDBLK
  5
12F
100
AcDbEntity
  8
0
100
AcDbBlockEnd
  0
BLOCK
  5
130
100
AcDbEntity
  8
0
100
AcDbBlockBegin
  2
elongated_hole-16
 70
0
 10
0.0
 20
0.0
 30
0.0
  3
elongated_hole-16
  1

  0
ARC
  5
131
100
AcDbEntity
  8
0
 62
1
370
-1
  6
CONTINUOUS
100
AcDbCircle
 10
-0.035816677078337
 20
0.320775380184152
 30
0.0
 40
0.3799999999999955
100
AcDbArc
 50
0.0
 51
179.999999999999801
  0
ARC
  5
132
100
AcDbEntity
  8
0
 62
1
370
-1
  6
CONTINUOUS
100
AcDbCircle
 10
-0.035816677078337
 20
-0.439224619815846
 30
0.0
 40
0.3799999999999955
100
AcDbArc
 50
180.000000000000199
 51
0.0
  0
LINE
  5
133
100
AcDbEntity
100
AcDbLine
  8
0
 62
1
370
-1
  6
CONTINUOUS
 10
-0.4158166770783325
 20
0.3207753801841537
 30
0.0
 11
-0.4158166770783325
 21
-0.4392246198158478
 31
0.0
  0
LINE
  5
134
100
AcDbEntity
100
AcDbLine
  8
0
 62
1
370
-1
  6
CONTINUOUS
 10
0.3441833229216655
 20
-0.439224619815846
 30
0.0
 11
0.3441833229216655
 21
0.320775380184152
 31
0.0
  0
ENDBLK
  5
135
100
AcDbEntity
  8
0
100
AcDbBlockEnd
  0
BLOCK
  5
136
100
AcDbEntity
  8
0
100
AcDbBlockBegin
  2
elongated_hole-17
 70
0
 10
0.0
 20
0.0
 30
0.0
  3
elongated_hole-17
  1

  0
ARC
  5
137
100
AcDbEntity
  8
0
 62
1
370
-1
  6
CONTINUOUS
100
AcDbCircle
 10
-0.035816677078337
 20
0.320775380184152
 30
0.0
 40
0.3799999999999955
100
AcDbArc
 50
0.0
 51
179.999999999999801
  0
ARC
  5
138
100
AcDbEntity
  8
0
 62
1
370
-1
  6
CONTINUOUS
100
AcDbCircle
 10
-0.035816677078337
 20
-0.439224619815846
 30
0.0
 40
0.3799999999999955
100
AcDbArc
 50
180.000000000000199
 51
0.0
  0
LINE
  5
139
100
AcDbEntity
100
AcDbLine
  8
0
 62
1
370
-1
  6
CONTINUOUS
 10
-0.4158166770783325
 20
0.3207753801841537
 30
0.0
 11
-0.4158166770783325
 21
-0.4392246198158478
 31
0.0
  0
LINE
  5
13A
100
AcDbEntity
100
AcDbLine
  8
0
 62
1
370
-1
  6
CONTINUOUS
 10
0.3441833229216655
 20
-0.439224619815846
 30
0.0
 11
0.3441833229216655
 21
0.320775380184152
 31
0.0
  0
ENDBLK
  5
13B
100
AcDbEntity
  8
0
100
AcDbBlockEnd
  0
BLOCK
  5
13C
100
AcDbEntity
  8
0
100
AcDbBlockBegin
  2
elongated_hole-18
 70
0
 10
0.0
 20
0.0
 30
0.0
  3
elongated_hole-18
  1

  0
ARC
  5
13D
100
AcDbEntity
  8
0
 62
1
370
-1
  6
CONTINUOUS
100
AcDbCircle
 10
-0.035816677078337
 20
0.320775380184152
 30
0.0
 40
0.3799999999999955
100
AcDbArc
 50
0.0
 51
179.999999999999801
  0
ARC
  5
13E
100
AcDbEntity
  8
0
 62
1
370
-1
  6
CONTINUOUS
100
AcDbCircle
 10
-0.035816677078337
 20
-0.439224619815846
 30
0.0
 40
0.3799999999999955
100
AcDbArc
 50
180.000000000000199
 51
0.0
  0
LINE
  5
13F
100
AcDbEntity
100
AcDbLine
  8
0
 62
1
370
-1
  6
CONTINUOUS
 10
-0.4158166770783325
 20
0.3207753801841537
 30
0.0
 11
-0.4158166770783325
 21
-0.4392246198158478
 31
0.0
  0
LINE
  5
140
100
AcDbEntity
100
AcDbLine
  8
0
 62
1
370
-1
  6
CONTINUOUS
 10
0.3441833229216655
 20
-0.439224619815846
 30
0.0
 11
0.3441833229216655
 21
0.320775380184152
 31
0.0
  0
ENDBLK
  5
141
100
AcDbEntity
  8
0
100
AcDbBlockEnd
  0
BLOCK
  5
142
100
AcDbEntity
  8
0
100
AcDbBlockBegin
  2
elongated_hole-19
 70
0
 10
0.0
 20
0.0
 30
0.0
  3
elongated_hole-19
  1

  0
ARC
  5
143
100
AcDbEntity
  8
0
 62
1
370
-1
  6
CONTINUOUS
100
AcDbCircle
 10
-0.035816677078337
 20
0.320775380184152
 30
0.0
 40
0.3799999999999955
100
AcDbArc
 50
0.0
 51
179.999999999999801
  0
ARC
  5
144
100
AcDbEntity
  8
0
 62
1
370
-1
  6
CONTINUOUS
100
AcDbCircle
 10
-0.035816677078337
 20
-0.439224619815846
 30
0.0
 40
0.3799999999999955
100
AcDbArc
 50
180.000000000000199
 51
0.0
  0
LINE
  5
145
100
AcDbEntity
100
AcDbLine
  8
0
 62
1
370
-1
  6
CONTINUOUS
 10
-0.4158166770783325
 20
0.3207753801841537
 30
0.0
 11
-0.4158166770783325
 21
-0.4392246198158478
 31
0.0
  0
LINE
  5
146
100
AcDbEntity
100
AcDbLine
  8
0
 62
1
370
-1
  6
CONTINUOUS
 10
0.3441833229216655
 20
-0.439224619815846
 30
0.0
 11
0.3441833229216655
 21
0.320775380184152
 31
0.0
  0
ENDBLK
  5
147
100
AcDbEntity
  8
0
100
AcDbBlockEnd
  0
BLOCK
  5
148
100
AcDbEntity
  8
0
100
AcDbBlockBegin
  2
elongated_hole-20
 70
0
 10
0.0
 20
0.0
 30
0.0
  3
elongated_hole-20
  1

  0
ARC
  5
149
100
AcDbEntity
  8
0
 62
1
370
-1
  6
CONTINUOUS
100
AcDbCircle
 10
-0.035816677078337
 20
0.320775380184152
 30
0.0
 40
0.3799999999999955
100
AcDbArc
 50
0.0
 51
179.999999999999801
  0
ARC
  5
14A
100
AcDbEntity
  8
0
 62
1
370
-1
  6
CONTINUOUS
100
AcDbCircle
 10
-0.035816677078337
 20
-0.439224619815846
 30
0.0
 40
0.3799999999999955
100
AcDbArc
 50
180.000000000000199
 51
0.0
  0
LINE
  5
14B
100
AcDbEntity
100
AcDbLine
  8
0
 62
1
370
-1
  6
CONTINUOUS
 10
-0.4158166770783325
 20
0.3207753801841537
 30
0.0
 11
-0.4158166770783325
 21
-0.4392246198158478
 31
0.0
  0
LINE
  5
14C
100
AcDbEntity
100
AcDbLine
  8
0
 62
1
370
-1
  6
CONTINUOUS
 10
0.3441833229216655
 20
-0.439224619815846
 30
0.0
 11
0.3441833229216655
 21
0.320775380184152
 31
0.0
  0
ENDBLK
  5
14D
100
AcDbEntity
  8
0
100
AcDbBlockEnd
  0
BLOCK
  5
14E
100
AcDbEntity
  8
0
100
AcDbBlockBegin
  2
elongated_hole-21
 70
0
 10
0.0
 20
0.0
 30
0.0
  3
elongated_hole-21
  1

  0
ARC
  5
14F
100
AcDbEntity
  8
0
 62
1
370
-1
  6
CONTINUOUS
100
AcDbCircle
 10
-0.035816677078337
 20
0.320775380184152
 30
0.0
 40
0.3799999999999955
100
AcDbArc
 50
0.0
 51
179.999999999999801
  0
ARC
  5
150
100
AcDbEntity
  8
0
 62
1
370
-1
  6
CONTINUOUS
100
AcDbCircle
 10
-0.035816677078337
 20
-0.439224619815846
 30
0.0
 40
0.3799999999999955
100
AcDbArc
 50
180.000000000000199
 51
0.0
  0
LINE
  5
151
100
AcDbEntity
100
AcDbLine
  8
0
 62
1
370
-1
  6
CONTINUOUS
 10
-0.4158166770783325
 20
0.3207753801841537
 30
0.0
 11
-0.4158166770783325
 21
-0.4392246198158478
 31
0.0
  0
LINE
  5
152
100
AcDbEntity
100
AcDbLine
  8
0
 62
1
370
-1
  6
CONTINUOUS
 10
0.3441833229216655
 20
-0.439224619815846
 30
0.0
 11
0.3441833229216655
 21
0.320775380184152
 31
0.0
  0
ENDBLK
  5
153
100
AcDbEntity
  8
0
100
AcDbBlockEnd
  0
BLOCK
  5
154
100
AcDbEntity
  8
0
100
AcDbBlockBegin
  2
elongated_hole-22
 70
0
 10
0.0
 20
0.0
 30
0.0
  3
elongated_hole-22
  1

  0
ARC
  5
155
100
AcDbEntity
  8
0
 62
1
370
-1
  6
CONTINUOUS
100
AcDbCircle
 10
-0.035816677078337
 20
0.320775380184152
 30
0.0
 40
0.3799999999999955
100
AcDbArc
 50
0.0
 51
179.999999999999801
  0
ARC
  5
156
100
AcDbEntity
  8
0
 62
1
370
-1
  6
CONTINUOUS
100
AcDbCircle
 10
-0.035816677078337
 20
-0.439224619815846
 30
0.0
 40
0.3799999999999955
100
AcDbArc
 50
180.000000000000199
 51
0.0
  0
LINE
  5
157
100
AcDbEntity
100
AcDbLine
  8
0
 62
1
370
-1
  6
CONTINUOUS
 10
-0.4158166770783325
 20
0.3207753801841537
 30
0.0
 11
-0.4158166770783325
 21
-0.4392246198158478
 31
0.0
  0
LINE
  5
158
100
AcDbEntity
100
AcDbLine
  8
0
 62
1
370
-1
  6
CONTINUOUS
 10
0.3441833229216655
 20
-0.439224619815846
 30
0.0
 11
0.3441833229216655
 21
0.320775380184152
 31
0.0
  0
ENDBLK
  5
159
100
AcDbEntity
  8
0
100
AcDbBlockEnd
  0
BLOCK
  5
15A
100
AcDbEntity
  8
0
100
AcDbBlockBegin
  2
elongated_hole-23
 70
0
 10
0.0
 20
0.0
 30
0.0
  3
elongated_hole-23
  1

  0
ARC
  5
15B
100
AcDbEntity
  8
0
 62
1
370
-1
  6
CONTINUOUS
100
AcDbCircle
 10
-0.035816677078337
 20
0.320775380184152
 30
0.0
 40
0.3799999999999955
100
AcDbArc
 50
0.0
 51
179.999999999999801
  0
ARC
  5
15C
100
AcDbEntity
  8
0
 62
1
370
-1
  6
CONTINUOUS
100
AcDbCircle
 10
-0.035816677078337
 20
-0.439224619815846
 30
0.0
 40
0.3799999999999955
100
AcDbArc
 50
180.000000000000199
 51
0.0
  0
LINE
  5
15D
100
AcDbEntity
100
AcDbLine
  8
0
 62
1
370
-1
  6
CONTINUOUS
 10
-0.4158166770783325
 20
0.3207753801841537
 30
0.0
 11
-0.4158166770783325
 21
-0.4392246198158478
 31
0.0
  0
LINE
  5
15E
100
AcDbEntity
100
AcDbLine
  8
0
 62
1
370
-1
  6
CONTINUOUS
 10
0.3441833229216655
 20
-0.439224619815846
 30
0.0
 11
0.3441833229216655
 21
0.320775380184152
 31
0.0
  0
ENDBLK
  5
15F
100
AcDbEntity
  8
0
100
AcDbBlockEnd
  0
BLOCK
  5
160
100
AcDbEntity
  8
0
100
AcDbBlockBegin
  2
elongated_hole-24
 70
0
 10
0.0
 20
0.0
 30
0.0
  3
elongated_hole-24
  1

  0
ARC
  5
161
100
AcDbEntity
  8
0
 62
1
370
-1
  6
CONTINUOUS
100
AcDbCircle
 10
-0.035816677078337
 20
0.320775380184152
 30
0.0
 40
0.3799999999999955
100
AcDbArc
 50
0.0
 51
179.999999999999801
  0
ARC
  5
162
100
AcDbEntity
  8
0
 62
1
370
-1
  6
CONTINUOUS
100
AcDbCircle
 10
-0.035816677078337
 20
-0.439224619815846
 30
0.0
 40
0.3799999999999955
100
AcDbArc
 50
180.000000000000199
 51
0.0
  0
LINE
  5
163
100
AcDbEntity
100
AcDbLine
  8
0
 62
1
370
-1
  6
CONTINUOUS
 10
-0.4158166770783325
 20
0.3207753801841537
 30
0.0
 11
-0.4158166770783325
 21
-0.4392246198158478
 31
0.0
  0
LINE
  5
164
100
AcDbEntity
100
AcDbLine
  8
0
 62
1
370
-1
  6
CONTINUOUS
 10
0.3441833229216655
 20
-0.439224619815846
 30
0.0
 11
0.3441833229216655
 21
0.320775380184152
 31
0.0
  0
ENDBLK
  5
165
100
AcDbEntity
  8
0
100
AcDbBlockEnd
  0
BLOCK
  5
166
100
AcDbEntity
  8
0
100
AcDbBlockBegin
  2
elongated_hole-25
 70
0
 10
0.0
 20
0.0
 30
0.0
  3
elongated_hole-25
  1

  0
ARC
  5
167
100
AcDbEntity
  8
0
 62
1
370
-1
  6
CONTINUOUS
100
AcDbCircle
 10
-0.035816677078337
 20
0.320775380184152
 30
0.0
 40
0.3799999999999955
100
AcDbArc
 50
0.0
 51
179.999999999999801
  0
ARC
  5
168
100
AcDbEntity
  8
0
 62
1
370
-1
  6
CONTINUOUS
100
AcDbCircle
 10
-0.035816677078337
 20
-0.439224619815846
 30
0.0
 40
0.3799999999999955
100
AcDbArc
 50
180.000000000000199
 51
0.0
  0
LINE
  5
169
100
AcDbEntity
100
AcDbLine
  8
0
 62
1
370
-1
  6
CONTINUOUS
 10
-0.4158166770783325
 20
0.3207753801841537
 30
0.0
 11
-0.4158166770783325
 21
-0.4392246198158478
 31
0.0
  0
LINE
  5
16A
100
AcDbEntity
100
AcDbLine
  8
0
 62
1
370
-1
  6
CONTINUOUS
 10
0.3441833229216655
 20
-0.439224619815846
 30
0.0
 11
0.3441833229216655
 21
0.320775380184152
 31
0.0
  0
ENDBLK
  5
16B
100
AcDbEntity
  8
0
100
AcDbBlockEnd
  0
BLOCK
  5
16C
100
AcDbEntity
  8
0
100
AcDbBlockBegin
  2
elongated_hole-26
 70
0
 10
0.0
 20
0.0
 30
0.0
  3
elongated_hole-26
  1

  0
ARC
  5
16D
100
AcDbEntity
  8
0
 62
1
370
-1
  6
CONTINUOUS
100
AcDbCircle
 10
-0.035816677078337
 20
0.320775380184152
 30
0.0
 40
0.3799999999999955
100
AcDbArc
 50
0.0
 51
179.999999999999801
  0
ARC
  5
16E
100
AcDbEntity
  8
0
 62
1
370
-1
  6
CONTINUOUS
100
AcDbCircle
 10
-0.035816677078337
 20
-0.439224619815846
 30
0.0
 40
0.3799999999999955
100
AcDbArc
 50
180.000000000000199
 51
0.0
  0
LINE
  5
16F
100
AcDbEntity
100
AcDbLine
  8
0
 62
1
370
-1
  6
CONTINUOUS
 10
-0.4158166770783325
 20
0.3207753801841537
 30
0.0
 11
-0.4158166770783325
 21
-0.4392246198158478
 31
0.0
  0
LINE
  5
170
100
AcDbEntity
100
AcDbLine
  8
0
 62
1
370
-1
  6
CONTINUOUS
 10
0.3441833229216655
 20
-0.439224619815846
 30
0.0
 11
0.3441833229216655
 21
0.320775380184152
 31
0.0
  0
ENDBLK
  5
171
100
AcDbEntity
  8
0
100
AcDbBlockEnd
  0
BLOCK
  5
172
100
AcDbEntity
  8
0
100
AcDbBlockBegin
  2
elongated_hole-27
 70
0
 10
0.0
 20
0.0
 30
0.0
  3
elongated_hole-27
  1

  0
ARC
  5
173
100
AcDbEntity
  8
0
 62
1
370
-1
  6
CONTINUOUS
100
AcDbCircle
 10
-0.035816677078337
 20
0.320775380184152
 30
0.0
 40
0.3799999999999955
100
AcDbArc
 50
0.0
 51
179.999999999999801
  0
ARC
  5
174
100
AcDbEntity
  8
0
 62
1
370
-1
  6
CONTINUOUS
100
AcDbCircle
 10
-0.035816677078337
 20
-0.439224619815846
 30
0.0
 40
0.3799999999999955
100
AcDbArc
 50
180.000000000000199
 51
0.0
  0
LINE
  5
175
100
AcDbEntity
100
AcDbLine
  8
0
 62
1
370
-1
  6
CONTINUOUS
 10
-0.4158166770783325
 20
0.3207753801841537
 30
0.0
 11
-0.4158166770783325
 21
-0.4392246198158478
 31
0.0
  0
LINE
  5
176
100
AcDbEntity
100
AcDbLine
  8
0
 62
1
370
-1
  6
CONTINUOUS
 10
0.3441833229216655
 20
-0.439224619815846
 30
0.0
 11
0.3441833229216655
 21
0.320775380184152
 31
0.0
  0
ENDBLK
  5
177
100
AcDbEntity
  8
0
100
AcDbBlockEnd
  0
BLOCK
  5
178
100
AcDbEntity
  8
0
100
AcDbBlockBegin
  2
elongated_hole-28
 70
0
 10
0.0
 20
0.0
 30
0.0
  3
elongated_hole-28
  1

  0
ARC
  5
179
100
AcDbEntity
  8
0
 62
1
370
-1
  6
CONTINUOUS
100
AcDbCircle
 10
-0.035816677078337
 20
0.320775380184152
 30
0.0
 40
0.3799999999999955
100
AcDbArc
 50
0.0
 51
179.999999999999801
  0
ARC
  5
17A
100
AcDbEntity
  8
0
 62
1
370
-1
  6
CONTINUOUS
100
AcDbCircle
 10
-0.035816677078337
 20
-0.439224619815846
 30
0.0
 40
0.3799999999999955
100
AcDbArc
 50
180.000000000000199
 51
0.0
  0
LINE
  5
17B
100
AcDbEntity
100
AcDbLine
  8
0
 62
1
370
-1
  6
CONTINUOUS
 10
-0.4158166770783325
 20
0.3207753801841537
 30
0.0
 11
-0.4158166770783325
 21
-0.4392246198158478
 31
0.0
  0
LINE
  5
17C
100
AcDbEntity
100
AcDbLine
  8
0
 62
1
370
-1
  6
CONTINUOUS
 10
0.3441833229216655
 20
-0.439224619815846
 30
0.0
 11
0.3441833229216655
 21
0.320775380184152
 31
0.0
  0
ENDBLK
  5
17D
100
AcDbEntity
  8
0
100
AcDbBlockEnd
  0
BLOCK
  5
17E
100
AcDbEntity
  8
0
100
AcDbBlockBegin
  2
elongated_hole-29
 70
0
 10
0.0
 20
0.0
 30
0.0
  3
elongated_hole-29
  1

  0
ARC
  5
17F
100
AcDbEntity
  8
0
 62
1
370
-1
  6
CONTINUOUS
100
AcDbCircle
 10
-0.035816677078337
 20
0.320775380184152
 30
0.0
 40
0.3799999999999955
100
AcDbArc
 50
0.0
 51
179.999999999999801
  0
ARC
  5
180
100
AcDbEntity
  8
0
 62
1
370
-1
  6
CONTINUOUS
100
AcDbCircle
 10
-0.035816677078337
 20
-0.439224619815846
 30
0.0
 40
0.3799999999999955
100
AcDbArc
 50
180.000000000000199
 51
0.0
  0
LINE
  5
181
100
AcDbEntity
100
AcDbLine
  8
0
 62
1
370
-1
  6
CONTINUOUS
 10
-0.4158166770783325
 20
0.3207753801841537
 30
0.0
 11
-0.4158166770783325
 21
-0.4392246198158478
 31
0.0
  0
LINE
  5
182
100
AcDbEntity
100
AcDbLine
  8
0
 62
1
370
-1
  6
CONTINUOUS
 10
0.3441833229216655
 20
-0.439224619815846
 30
0.0
 11
0.3441833229216655
 21
0.320775380184152
 31
0.0
  0
ENDBLK
  5
183
100
AcDbEntity
  8
0
100
AcDbBlockEnd
  0
BLOCK
  5
184
100
AcDbEntity
  8
0
100
AcDbBlockBegin
  2
elongated_hole-30
 70
0
 10
0.0
 20
0.0
 30
0.0
  3
elongated_hole-30
  1

  0
ARC
  5
185
100
AcDbEntity
  8
0
 62
1
370
-1
  6
CONTINUOUS
100
AcDbCircle
 10
-0.035816677078337
 20
0.320775380184152
 30
0.0
 40
0.3799999999999955
100
AcDbArc
 50
0.0
 51
179.999999999999801
  0
ARC
  5
186
100
AcDbEntity
  8
0
 62
1
370
-1
  6
CONTINUOUS
100
AcDbCircle
 10
-0.035816677078337
 20
-0.439224619815846
 30
0.0
 40
0.3799999999999955
100
AcDbArc
 50
180.000000000000199
 51
0.0
  0
LINE
  5
187
100
AcDbEntity
100
AcDbLine
  8
0
 62
1
370
-1
  6
CONTINUOUS
 10
-0.4158166770783325
 20
0.3207753801841537
 30
0.0
 11
-0.4158166770783325
 21
-0.4392246198158478
 31
0.0
  0
LINE
  5
188
100
AcDbEntity
100
AcDbLine
  8
0
 62
1
370
-1
  6
CONTINUOUS
 10
0.3441833229216655
 20
-0.439224619815846
 30
0.0
 11
0.3441833229216655
 21
0.320775380184152
 31
0.0
  0
ENDBLK
  5
189
100
AcDbEntity
  8
0
100
AcDbBlockEnd
  0
BLOCK
  5
18A
100
AcDbEntity
  8
0
100
AcDbBlockBegin
  2
elongated_hole-31
 70
0
 10
0.0
 20
0.0
 30
0.0
  3
elongated_hole-31
  1

  0
ARC
  5
18B
100
AcDbEntity
  8
0
 62
1
370
-1
  6
CONTINUOUS
100
AcDbCircle
 10
-0.035816677078337
 20
0.320775380184152
 30
0.0
 40
0.3799999999999955
100
AcDbArc
 50
0.0
 51
179.999999999999801
  0
ARC
  5
18C
100
AcDbEntity
  8
0
 62
1
370
-1
  6
CONTINUOUS
100
AcDbCircle
 10
-0.035816677078337
 20
-0.439224619815846
 30
0.0
 40
0.3799999999999955
100
AcDbArc
 50
180.000000000000199
 51
0.0
  0
LINE
  5
18D
100
AcDbEntity
100
AcDbLine
  8
0
 62
1
370
-1
  6
CONTINUOUS
 10
-0.4158166770783325
 20
0.3207753801841537
 30
0.0
 11
-0.4158166770783325
 21
-0.4392246198158478
 31
0.0
  0
LINE
  5
18E
100
AcDbEntity
100
AcDbLine
  8
0
 62
1
370
-1
  6
CONTINUOUS
 10
0.3441833229216655
 20
-0.439224619815846
 30
0.0
 11
0.3441833229216655
 21
0.320775380184152
 31
0.0
  0
ENDBLK
  5
18F
100
AcDbEntity
  8
0
100
AcDbBlockEnd
  0
BLOCK
  5
190
100
AcDbEntity
  8
0
100
AcDbBlockBegin
  2
elongated_hole-32
 70
0
 10
0.0
 20
0.0
 30
0.0
  3
elongated_hole-32
  1

  0
ARC
  5
191
100
AcDbEntity
  8
0
 62
1
370
-1
  6
CONTINUOUS
100
AcDbCircle
 10
-0.035816677078337
 20
0.320775380184152
 30
0.0
 40
0.3799999999999955
100
AcDbArc
 50
0.0
 51
179.999999999999801
  0
ARC
  5
192
100
AcDbEntity
  8
0
 62
1
370
-1
  6
CONTINUOUS
100
AcDbCircle
 10
-0.035816677078337
 20
-0.439224619815846
 30
0.0
 40
0.3799999999999955
100
AcDbArc
 50
180.000000000000199
 51
0.0
  0
LINE
  5
193
100
AcDbEntity
100
AcDbLine
  8
0
 62
1
370
-1
  6
CONTINUOUS
 10
-0.4158166770783325
 20
0.3207753801841537
 30
0.0
 11
-0.4158166770783325
 21
-0.4392246198158478
 31
0.0
  0
LINE
  5
194
100
AcDbEntity
100
AcDbLine
  8
0
 62
1
370
-1
  6
CONTINUOUS
 10
0.3441833229216655
 20
-0.439224619815846
 30
0.0
 11
0.3441833229216655
 21
0.320775380184152
 31
0.0
  0
ENDBLK
  5
195
100
AcDbEntity
  8
0
100
AcDbBlockEnd
  0
BLOCK
  5
196
100
AcDbEntity
  8
0
100
AcDbBlockBegin
  2
elongated_hole-33
 70
0
 10
0.0
 20
0.0
 30
0.0
  3
elongated_hole-33
  1

  0
ARC
  5
197
100
AcDbEntity
  8
0
 62
1
370
-1
  6
CONTINUOUS
100
AcDbCircle
 10
-0.035816677078337
 20
0.320775380184152
 30
0.0
 40
0.3799999999999955
100
AcDbArc
 50
0.0
 51
179.999999999999801
  0
ARC
  5
198
100
AcDbEntity
  8
0
 62
1
370
-1
  6
CONTINUOUS
100
AcDbCircle
 10
-0.035816677078337
 20
-0.439224619815846
 30
0.0
 40
0.3799999999999955
100
AcDbArc
 50
180.000000000000199
 51
0.0
  0
LINE
  5
199
100
AcDbEntity
100
AcDbLine
  8
0
 62
1
370
-1
  6
CONTINUOUS
 10
-0.4158166770783325
 20
0.3207753801841537
 30
0.0
 11
-0.4158166770783325
 21
-0.4392246198158478
 31
0.0
  0
LINE
  5
19A
100
AcDbEntity
100
AcDbLine
  8
0
 62
1
370
-1
  6
CONTINUOUS
 10
0.3441833229216655
 20
-0.439224619815846
 30
0.0
 11
0.3441833229216655
 21
0.320775380184152
 31
0.0
  0
ENDBLK
  5
19B
100
AcDbEntity
  8
0
100
AcDbBlockEnd
  0
BLOCK
  5
19C
100
AcDbEntity
  8
0
100
AcDbBlockBegin
  2
elongated_hole-34
 70
0
 10
0.0
 20
0.0
 30
0.0
  3
elongated_hole-34
  1

  0
ARC
  5
19D
100
AcDbEntity
  8
0
 62
1
370
-1
  6
CONTINUOUS
100
AcDbCircle
 10
-0.035816677078337
 20
0.320775380184152
 30
0.0
 40
0.3799999999999955
100
AcDbArc
 50
0.0
 51
179.999999999999801
  0
ARC
  5
19E
100
AcDbEntity
  8
0
 62
1
370
-1
  6
CONTINUOUS
100
AcDbCircle
 10
-0.035816677078337
 20
-0.439224619815846
 30
0.0
 40
0.3799999999999955
100
AcDbArc
 50
180.000000000000199
 51
0.0
  0
LINE
  5
19F
100
AcDbEntity
100
AcDbLine
  8
0
 62
1
370
-1
  6
CONTINUOUS
 10
-0.4158166770783325
 20
0.3207753801841537
 30
0.0
 11
-0.4158166770783325
 21
-0.4392246198158478
 31
0.0
  0
LINE
  5
1A0
100
AcDbEntity
100
AcDbLine
  8
0
 62
1
370
-1
  6
CONTINUOUS
 10
0.3441833229216655
 20
-0.439224619815846
 30
0.0
 11
0.3441833229216655
 21
0.320775380184152
 31
0.0
  0
ENDBLK
  5
1A1
100
AcDbEntity
  8
0
100
AcDbBlockEnd
  0
BLOCK
  5
1A2
100
AcDbEntity
  8
0
100
AcDbBlockBegin
  2
elongated_hole-35
 70
0
 10
0.0
 20
0.0
 30
0.0
  3
elongated_hole-35
  1

  0
ARC
  5
1A3
100
AcDbEntity
  8
0
 62
1
370
-1
  6
CONTINUOUS
100
AcDbCircle
 10
-0.035816677078337
 20
0.320775380184152
 30
0.0
 40
0.3799999999999955
100
AcDbArc
 50
0.0
 51
179.999999999999801
  0
ARC
  5
1A4
100
AcDbEntity
  8
0
 62
1
370
-1
  6
CONTINUOUS
100
AcDbCircle
 10
-0.035816677078337
 20
-0.439224619815846
 30
0.0
 40
0.3799999999999955
100
AcDbArc
 50
180.000000000000199
 51
0.0
  0
LINE
  5
1A5
100
AcDbEntity
100
AcDbLine
  8
0
 62
1
370
-1
  6
CONTINUOUS
 10
-0.4158166770783325
 20
0.320775380184152
 30
0.0
 11
-0.4158166770783325
 21
-0.439224619815846
 31
0.0
  0
LINE
  5
1A6
100
AcDbEntity
100
AcDbLine
  8
0
 62
1
370
-1
  6
CONTINUOUS
 10
0.3441833229216655
 20
-0.439224619815846
 30
0.0
 11
0.3441833229216655
 21
0.320775380184152
 31
0.0
  0
ENDBLK
  5
1A7
100
AcDbEntity
  8
0
100
AcDbBlockEnd
  0
BLOCK
  5
1A8
100
AcDbEntity
  8
0
100
AcDbBlockBegin
  2
elongated_hole-36
 70
0
 10
0.0
 20
0.0
 30
0.0
  3
elongated_hole-36
  1

  0
ARC
  5
1A9
100
AcDbEntity
  8
0
 62
1
370
-1
  6
CONTINUOUS
100
AcDbCircle
 10
-0.035816677078337
 20
0.320775380184152
 30
0.0
 40
0.3799999999999955
100
AcDbArc
 50
0.0
 51
179.999999999999801
  0
ARC
  5
1AA
100
AcDbEntity
  8
0
 62
1
370
-1
  6
CONTINUOUS
100
AcDbCircle
 10
-0.035816677078337
 20
-0.439224619815846
 30
0.0
 40
0.3799999999999955
100
AcDbArc
 50
180.000000000000199
 51
0.0
  0
LINE
  5
1AB
100
AcDbEntity
100
AcDbLine
  8
0
 62
1
370
-1
  6
CONTINUOUS
 10
-0.4158166770783325
 20
0.320775380184152
 30
0.0
 11
-0.4158166770783325
 21
-0.439224619815846
 31
0.0
  0
LINE
  5
1AC
100
AcDbEntity
100
AcDbLine
  8
0
 62
1
370
-1
  6
CONTINUOUS
 10
0.3441833229216655
 20
-0.439224619815846
 30
0.0
 11
0.3441833229216655
 21
0.320775380184152
 31
0.0
  0
ENDBLK
  5
1AD
100
AcDbEntity
  8
0
100
AcDbBlockEnd
  0
BLOCK
  5
1AE
100
AcDbEntity
  8
0
100
AcDbBlockBegin
  2
elongated_hole-37
 70
0
 10
0.0
 20
0.0
 30
0.0
  3
elongated_hole-37
  1

  0
ARC
  5
1AF
100
AcDbEntity
  8
0
 62
1
370
-1
  6
CONTINUOUS
100
AcDbCircle
 10
-0.035816677078337
 20
0.320775380184152
 30
0.0
 40
0.3799999999999955
100
AcDbArc
 50
0.0
 51
179.999999999999801
  0
ARC
  5
1B0
100
AcDbEntity
  8
0
 62
1
370
-1
  6
CONTINUOUS
100
AcDbCircle
 10
-0.035816677078337
 20
-0.439224619815846
 30
0.0
 40
0.3799999999999955
100
AcDbArc
 50
180.000000000000199
 51
0.0
  0
LINE
  5
1B1
100
AcDbEntity
100
AcDbLine
  8
0
 62
1
370
-1
  6
CONTINUOUS
 10
-0.4158166770783325
 20
0.3207753801841537
 30
0.0
 11
-0.4158166770783325
 21
-0.4392246198158478
 31
0.0
  0
LINE
  5
1B2
100
AcDbEntity
100
AcDbLine
  8
0
 62
1
370
-1
  6
CONTINUOUS
 10
0.3441833229216655
 20
-0.439224619815846
 30
0.0
 11
0.3441833229216655
 21
0.320775380184152
 31
0.0
  0
ENDBLK
  5
1B3
100
AcDbEntity
  8
0
100
AcDbBlockEnd
  0
BLOCK
  5
1B4
100
AcDbEntity
  8
0
100
AcDbBlockBegin
  2
elongated_hole-38
 70
0
 10
0.0
 20
0.0
 30
0.0
  3
elongated_hole-38
  1

  0
ARC
  5
1B5
100
AcDbEntity
  8
0
 62
1
370
-1
  6
CONTINUOUS
100
AcDbCircle
 10
-0.035816677078337
 20
0.320775380184152
 30
0.0
 40
0.3799999999999955
100
AcDbArc
 50
0.0
 51
179.999999999999801
  0
ARC
  5
1B6
100
AcDbEntity
  8
0
 62
1
370
-1
  6
CONTINUOUS
100
AcDbCircle
 10
-0.035816677078337
 20
-0.439224619815846
 30
0.0
 40
0.3799999999999955
100
AcDbArc
 50
180.000000000000199
 51
0.0
  0
LINE
  5
1B7
100
AcDbEntity
100
AcDbLine
  8
0
 62
1
370
-1
  6
CONTINUOUS
 10
-0.4158166770783325
 20
0.3207753801841537
 30
0.0
 11
-0.4158166770783325
 21
-0.4392246198158478
 31
0.0
  0
LINE
  5
1B8
100
AcDbEntity
100
AcDbLine
  8
0
 62
1
370
-1
  6
CONTINUOUS
 10
0.3441833229216655
 20
-0.439224619815846
 30
0.0
 11
0.3441833229216655
 21
0.320775380184152
 31
0.0
  0
ENDBLK
  5
1B9
100
AcDbEntity
  8
0
100
AcDbBlockEnd
  0
BLOCK
  5
1BA
100
AcDbEntity
  8
0
100
AcDbBlockBegin
  2
elongated_hole-39
 70
0
 10
0.0
 20
0.0
 30
0.0
  3
elongated_hole-39
  1

  0
ARC
  5
1BB
100
AcDbEntity
  8
0
 62
1
370
-1
  6
CONTINUOUS
100
AcDbCircle
 10
-0.035816677078337
 20
0.320775380184152
 30
0.0
 40
0.3799999999999955
100
AcDbArc
 50
0.0
 51
179.999999999999801
  0
ARC
  5
1BC
100
AcDbEntity
  8
0
 62
1
370
-1
  6
CONTINUOUS
100
AcDbCircle
 10
-0.035816677078337
 20
-0.439224619815846
 30
0.0
 40
0.3799999999999955
100
AcDbArc
 50
180.000000000000199
 51
0.0
  0
LINE
  5
1BD
100
AcDbEntity
100
AcDbLine
  8
0
 62
1
370
-1
  6
CONTINUOUS
 10
-0.4158166770783325
 20
0.3207753801841537
 30
0.0
 11
-0.4158166770783325
 21
-0.4392246198158478
 31
0.0
  0
LINE
  5
1BE
100
AcDbEntity
100
AcDbLine
  8
0
 62
1
370
-1
  6
CONTINUOUS
 10
0.3441833229216655
 20
-0.439224619815846
 30
0.0
 11
0.3441833229216655
 21
0.320775380184152
 31
0.0
  0
ENDBLK
  5
1BF
100
AcDbEntity
  8
0
100
AcDbBlockEnd
  0
BLOCK
  5
1C0
100
AcDbEntity
  8
0
100
AcDbBlockBegin
  2
elongated_hole-40
 70
0
 10
0.0
 20
0.0
 30
0.0
  3
elongated_hole-40
  1

  0
ARC
  5
1C1
100
AcDbEntity
  8
0
 62
1
370
-1
  6
CONTINUOUS
100
AcDbCircle
 10
-0.035816677078337
 20
0.320775380184152
 30
0.0
 40
0.3799999999999955
100
AcDbArc
 50
0.0
 51
179.999999999999801
  0
ARC
  5
1C2
100
AcDbEntity
  8
0
 62
1
370
-1
  6
CONTINUOUS
100
AcDbCircle
 10
-0.035816677078337
 20
-0.439224619815846
 30
0.0
 40
0.3799999999999955
100
AcDbArc
 50
180.000000000000199
 51
0.0
  0
LINE
  5
1C3
100
AcDbEntity
100
AcDbLine
  8
0
 62
1
370
-1
  6
CONTINUOUS
 10
-0.4158166770783325
 20
0.3207753801841537
 30
0.0
 11
-0.4158166770783325
 21
-0.4392246198158478
 31
0.0
  0
LINE
  5
1C4
100
AcDbEntity
100
AcDbLine
  8
0
 62
1
370
-1
  6
CONTINUOUS
 10
0.3441833229216655
 20
-0.439224619815846
 30
0.0
 11
0.3441833229216655
 21
0.320775380184152
 31
0.0
  0
ENDBLK
  5
1C5
100
AcDbEntity
  8
0
100
AcDbBlockEnd
  0
BLOCK
  5
1C6
100
AcDbEntity
  8
0
100
AcDbBlockBegin
  2
elongated_hole-41
 70
0
 10
0.0
 20
0.0
 30
0.0
  3
elongated_hole-41
  1

  0
ARC
  5
1C7
100
AcDbEntity
  8
0
 62
1
370
-1
  6
CONTINUOUS
100
AcDbCircle
 10
-0.035816677078337
 20
0.320775380184152
 30
0.0
 40
0.3799999999999955
100
AcDbArc
 50
0.0
 51
179.999999999999801
  0
ARC
  5
1C8
100
AcDbEntity
  8
0
 62
1
370
-1
  6
CONTINUOUS
100
AcDbCircle
 10
-0.035816677078337
 20
-0.439224619815846
 30
0.0
 40
0.3799999999999955
100
AcDbArc
 50
180.000000000000199
 51
0.0
  0
LINE
  5
1C9
100
AcDbEntity
100
AcDbLine
  8
0
 62
1
370
-1
  6
CONTINUOUS
 10
-0.4158166770783325
 20
0.320775380184152
 30
0.0
 11
-0.4158166770783325
 21
-0.439224619815846
 31
0.0
  0
LINE
  5
1CA
100
AcDbEntity
100
AcDbLine
  8
0
 62
1
370
-1
  6
CONTINUOUS
 10
0.3441833229216655
 20
-0.439224619815846
 30
0.0
 11
0.3441833229216655
 21
0.320775380184152
 31
0.0
  0
ENDBLK
  5
1CB
100
AcDbEntity
  8
0
100
AcDbBlockEnd
  0
BLOCK
  5
1CC
100
AcDbEntity
  8
0
100
AcDbBlockBegin
  2
elongated_hole-42
 70
0
 10
0.0
 20
0.0
 30
0.0
  3
elongated_hole-42
  1

  0
ARC
  5
1CD
100
AcDbEntity
  8
0
 62
1
370
-1
  6
CONTINUOUS
100
AcDbCircle
 10
-0.035816677078337
 20
0.320775380184152
 30
0.0
 40
0.3799999999999955
100
AcDbArc
 50
0.0
 51
179.999999999999801
  0
ARC
  5
1CE
100
AcDbEntity
  8
0
 62
1
370
-1
  6
CONTINUOUS
100
AcDbCircle
 10
-0.035816677078337
 20
-0.439224619815846
 30
0.0
 40
0.3799999999999955
100
AcDbArc
 50
180.000000000000199
 51
0.0
  0
LINE
  5
1CF
100
AcDbEntity
100
AcDbLine
  8
0
 62
1
370
-1
  6
CONTINUOUS
 10
-0.4158166770783325
 20
0.320775380184152
 30
0.0
 11
-0.4158166770783325
 21
-0.439224619815846
 31
0.0
  0
LINE
  5
1D0
100
AcDbEntity
100
AcDbLine
  8
0
 62
1
370
-1
  6
CONTINUOUS
 10
0.3441833229216655
 20
-0.439224619815846
 30
0.0
 11
0.3441833229216655
 21
0.320775380184152
 31
0.0
  0
ENDBLK
  5
1D1
100
AcDbEntity
  8
0
100
AcDbBlockEnd
  0
ENDSEC
  0
SECTION
  2
ENTITIES
  0
LINE
  5
1D2
100
AcDbEntity
100
AcDbLine
  8
dims verify
 62
256
370
-1
  6
ByLayer
 10
1.335958655324248
 20
9.1522273957166291
 30
0.0
 11
-1.664041344675752
 21
9.1522273957166291
 31
0.0
  0
LINE
  5
1D3
100
AcDbEntity
100
AcDbLine
  8
dims verify
 62
256
370
-1
  6
ByLayer
 10
-1.664041344675752
 20
9.1522273957166291
 30
0.0
 11
-1.664041344675752
 21
-13.247772604283373
 31
0.0
  0
LINE
  5
1D4
100
AcDbEntity
100
AcDbLine
  8
dims verify
 62
256
370
-1
  6
ByLayer
 10
-1.664041344675752
 20
-13.247772604283373
 30
0.0
 11
1.335958655324248
 21
-13.247772604283373
 31
0.0
  0
LINE
  5
1D5
100
AcDbEntity
100
AcDbLine
  8
dims verify
 62
256
370
-1
  6
ByLayer
 10
1.335958655324248
 20
-13.247772604283373
 30
0.0
 11
1.335958655324248
 21
9.1522273957166291
 31
0.0
  0
ENDSEC
  0
SECTION
  2
OBJECTS
  0
DICTIONARY
  5
C
100
AcDbDictionary
280
0
281
1
  3
ACAD_GROUP
350
D
  3
ACAD_LAYOUT
350
1A
  3
ACAD_MLINESTYLE
350
17
  3
ACAD_PLOTSETTINGS
350
19
  3
ACAD_PLOTSTYLENAME
350
E
  3
AcDbVariableDictionary
350
1D6
  0
DICTIONARY
  5
D
100
AcDbDictionary
280
0
281
1
  0
ACDBDICTIONARYWDFLT
  5
E
100
AcDbDictionary
281
1
  3
Normal
350
F
100
AcDbDictionaryWithDefault
340
F
  0
ACDBPLACEHOLDER
  5
F
  0
DICTIONARY
  5
17
100
AcDbDictionary
280
0
281
1
  3
Standard
350
18
  0
MLINESTYLE
  5
18
100
AcDbMlineStyle
  2
STANDARD
 70
0
  3

 62
256
 51
90.0
 52
90.0
 71
2
 49
0.5
 62
256
  6
BYLAYER
 49
-0.5
 62
256
  6
BYLAYER
  0
DICTIONARY
  5
19
100
AcDbDictionary
280
0
281
1
  0
DICTIONARY
  5
1A
100
AcDbDictionary
281
1
  3
Layout1
350
1E
  3
Layout2
350
26
  3
Model
350
22
  0
LAYOUT
  5
1E
100
AcDbPlotSettings
  1

  2
C:\Program Files\AutoCAD 2002\plotters\DWF ePlot (optimized for plotting).pc3
  4

  6

 40
0.0
 41
0.0
 42
0.0
 43
0.0
 44
0.0
 45
0.0
 46
0.0
 47
0.0
 48
0.0
 49
0.0
140
0.0
141
0.0
142
1.0
143
1.0
 70
688
 72
0
 73
0
 74
5
  7

 75
16
147
1.0
148
0.0
149
0.0
100
AcDbLayout
  1
Layout1
 70
1
 71
1
 10
0.0
 20
0.0
 11
420.0
 21
297.0
 12
0.0
 22
0.0
 32
0.0
 14
100000000000000000000.0
 24
100000000000000000000.0
 34
100000000000000000000.0
 15
-100000000000000000000.0
 25
-100000000000000000000.0
 35
-100000000000000000000.0
146
0.0
 13
0.0
 23
0.0
 33
0.0
 16
1.0
 26
0.0
 36
0.0
 17
0.0
 27
1.0
 37
0.0
 76
0
330
1B
  0
LAYOUT
  5
22
100
AcDbPlotSettings
  1

  2
C:\Program Files\AutoCAD 2002\plotters\DWF ePlot (optimized for plotting).pc3
  4

  6

 40
0.0
 41
0.0
 42
0.0
 43
0.0
 44
0.0
 45
0.0
 46
0.0
 47
0.0
 48
0.0
 49
0.0
140
0.0
141
0.0
142
1.0
143
1.0
 70
1712
 72
0
 73
0
 74
0
  7

 75
0
147
1.0
148
0.0
149
0.0
100
AcDbLayout
  1
Model
 70
1
 71
0
 10
0.0
 20
0.0
 11
12.0
 21
9.0
 12
0.0
 22
0.0
 32
0.0
 14
0.0
 24
0.0
 34
0.0
 15
0.0
 25
0.0
 35
0.0
146
0.0
 13
0.0
 23
0.0
 33
0.0
 16
1.0
 26
0.0
 36
0.0
 17
0.0
 27
1.0
 37
0.0
 76
0
330
1F
  0
LAYOUT
  5
26
100
AcDbPlotSettings
  1

  2
C:\Program Files\AutoCAD 2002\plotters\DWF ePlot (optimized for plotting).pc3
  4

  6

 40
0.0
 41
0.0
 42
0.0
 43
0.0
 44
0.0
 45
0.0
 46
0.0
 47
0.0
 48
0.0
 49
0.0
140
0.0
141
0.0
142
1.0
143
1.0
 70
688
 72
0
 73
0
 74
5
  7

 75
16
147
1.0
148
0.0
149
0.0
100
AcDbLayout
  1
Layout2
 70
1
 71
2
 10
0.0
 20
0.0
 11
12.0
 21
9.0
 12
0.0
 22
0.0
 32
0.0
 14
0.0
 24
0.0
 34
0.0
 15
0.0
 25
0.0
 35
0.0
146
0.0
 13
0.0
 23
0.0
 33
0.0
 16
1.0
 26
0.0
 36
0.0
 17
0.0
 27
1.0
 37
0.0
 76
0
330
23
  0
DICTIONARY
  5
1D6
100
AcDbDictionary
281
1
  3
DIMASSOC
350
1D8
  3
HIDETEXT
350
1D7
  0
DICTIONARYVAR
  5
1D7
100
DictionaryVariables
280
0
  1
2
  0
DICTIONARYVAR
  5
1D8
100
DictionaryVariables
280
0
  1
1
  0
ENDSEC
  0
EOF
