ISO-10303-21;
HEADER;
FILE_DESCRIPTION (( 'STEP AP203' ),
    '1' );
FILE_NAME ('BladeGuardSide.STEP',
    '2012-06-08T01:54:32',
    ( '' ),
    ( '' ),
    'SwSTEP 2.0',
    'SolidWorks 2010',
    '' );
FILE_SCHEMA (( 'CONFIG_CONTROL_DESIGN' ));
ENDSEC;

DATA;
#1 = PERSON ( 'UNSPECIFIED', 'UNSPECIFIED', 'UNSPECIFIED', ('UNSPECIFIED'), ('UNSPECIFIED'), ('UNSPECIFIED') ) ;
#2 = PRODUCT ( 'BladeGuardSide', 'BladeGuardSide', '', ( #119 ) ) ;
#3 = ADVANCED_FACE ( 'NONE', ( #83 ), #184, .F. ) ;
#4 = ADVANCED_FACE ( 'NONE', ( #98 ), #187, .F. ) ;
#5 = ADVANCED_FACE ( 'NONE', ( #67 ), #176, .F. ) ;
#6 = ADVANCED_FACE ( 'NONE', ( #10 ), #210, .F. ) ;
#7 = ADVANCED_FACE ( 'NONE', ( #89 ), #175, .T. ) ;
#8 = ADVANCED_FACE ( 'NONE', ( #79 ), #196, .F. ) ;
#9 = LINE ( 'NONE', #219, #77 ) ;
#10 = FACE_OUTER_BOUND ( 'NONE', #64, .T. ) ;
#11 = LINE ( 'NONE', #231, #104 ) ;
#12 = ORIENTED_EDGE ( 'NONE', *, *, #139, .F. ) ;
#13 = ORIENTED_EDGE ( 'NONE', *, *, #134, .F. ) ;
#14 = ORIENTED_EDGE ( 'NONE', *, *, #144, .F. ) ;
#15 = VECTOR ( 'NONE', #194, 1000.000000000000000 ) ;
#16 = VECTOR ( 'NONE', #200, 1000.000000000000000 ) ;
#17 = LINE ( 'NONE', #235, #16 ) ;
#18 = LINE ( 'NONE', #233, #19 ) ;
#19 = VECTOR ( 'NONE', #217, 1000.000000000000000 ) ;
#20 = VECTOR ( 'NONE', #206, 1000.000000000000000 ) ;
#21 = LINE ( 'NONE', #182, #22 ) ;
#22 = VECTOR ( 'NONE', #188, 1000.000000000000000 ) ;
#23 =( GEOMETRIC_REPRESENTATION_CONTEXT ( 3 ) GLOBAL_UNCERTAINTY_ASSIGNED_CONTEXT ( ( #131 ) ) GLOBAL_UNIT_ASSIGNED_CONTEXT ( ( #173, #224, #209 ) ) REPRESENTATION_CONTEXT ( 'NONE', 'WORKASPACE' ) );
#24 = SHAPE_DEFINITION_REPRESENTATION ( #128, #130 ) ;
#25 = ORGANIZATION ( 'UNSPECIFIED', 'UNSPECIFIED', '' ) ;
#26 = PERSON_AND_ORGANIZATION ( #1, #25 ) ;
#27 = PERSON_AND_ORGANIZATION ( #1, #25 ) ;
#28 = APPROVAL_PERSON_ORGANIZATION ( #27, #153, #112 ) ;
#29 = COORDINATED_UNIVERSAL_TIME_OFFSET ( 6, 0, .BEHIND. ) ;
#30 = LOCAL_TIME ( 20, 54, 32.00000000000000000, #29 ) ;
#31 = DATE_AND_TIME ( #32, #30 ) ;
#32 = CALENDAR_DATE ( 2012, 7, 6 ) ;
#33 = APPROVAL_DATE_TIME ( #31, #153 ) ;
#34 = PERSON_AND_ORGANIZATION ( #1, #25 ) ;
#35 = COORDINATED_UNIVERSAL_TIME_OFFSET ( 6, 0, .BEHIND. ) ;
#36 = LOCAL_TIME ( 20, 54, 32.00000000000000000, #68 ) ;
#37 = CALENDAR_DATE ( 2012, 7, 6 ) ;
#38 = DATE_AND_TIME ( #37, #36 ) ;
#39 = APPROVAL_DATE_TIME ( #38, #158 ) ;
#40 = PERSON_AND_ORGANIZATION ( #1, #25 ) ;
#41 = PERSON_AND_ORGANIZATION ( #1, #25 ) ;
#42 = PERSON_AND_ORGANIZATION ( #1, #25 ) ;
#43 = COORDINATED_UNIVERSAL_TIME_OFFSET ( 6, 0, .BEHIND. ) ;
#44 = LOCAL_TIME ( 20, 54, 32.00000000000000000, #43 ) ;
#45 = CALENDAR_DATE ( 2012, 7, 6 ) ;
#46 = DATE_AND_TIME ( #45, #44 ) ;
#47 = PERSON_AND_ORGANIZATION ( #1, #25 ) ;
#48 = COORDINATED_UNIVERSAL_TIME_OFFSET ( 6, 0, .BEHIND. ) ;
#49 = APPROVAL_PERSON_ORGANIZATION ( #47, #165, #114 ) ;
#50 = LOCAL_TIME ( 20, 54, 32.00000000000000000, #48 ) ;
#51 = CALENDAR_DATE ( 2012, 7, 6 ) ;
#52 = DATE_AND_TIME ( #51, #50 ) ;
#53 = APPROVAL_DATE_TIME ( #52, #165 ) ;
#54 = VECTOR ( 'NONE', #228, 1000.000000000000000 ) ;
#55 = ORIENTED_EDGE ( 'NONE', *, *, #138, .F. ) ;
#56 = ORIENTED_EDGE ( 'NONE', *, *, #140, .T. ) ;
#57 = LOCAL_TIME ( 20, 54, 32.00000000000000000, #35 ) ;
#58 = ORIENTED_EDGE ( 'NONE', *, *, #139, .T. ) ;
#59 = ORIENTED_EDGE ( 'NONE', *, *, #142, .T. ) ;
#60 = LINE ( 'NONE', #230, #54 ) ;
#61 = DATE_AND_TIME ( #86, #57 ) ;
#62 = ORIENTED_EDGE ( 'NONE', *, *, #137, .F. ) ;
#63 = ORIENTED_EDGE ( 'NONE', *, *, #136, .T. ) ;
#64 = EDGE_LOOP ( 'NONE', ( #66, #82, #95, #90 ) ) ;
#65 = LINE ( 'NONE', #204, #20 ) ;
#66 = ORIENTED_EDGE ( 'NONE', *, *, #135, .T. ) ;
#67 = FACE_OUTER_BOUND ( 'NONE', #91, .T. ) ;
#68 = COORDINATED_UNIVERSAL_TIME_OFFSET ( 6, 0, .BEHIND. ) ;
#69 = ORIENTED_EDGE ( 'NONE', *, *, #143, .F. ) ;
#70 = LINE ( 'NONE', #191, #97 ) ;
#71 = ORIENTED_EDGE ( 'NONE', *, *, #141, .F. ) ;
#72 = EDGE_LOOP ( 'NONE', ( #12, #14, #69, #71 ) ) ;
#73 = ORIENTED_EDGE ( 'NONE', *, *, #141, .T. ) ;
#74 = APPROVAL_PERSON_ORGANIZATION ( #87, #158, #126 ) ;
#75 = ORIENTED_EDGE ( 'NONE', *, *, #143, .T. ) ;
#76 = ORIENTED_EDGE ( 'NONE', *, *, #144, .T. ) ;
#77 = VECTOR ( 'NONE', #197, 1000.000000000000000 ) ;
#78 = LINE ( 'NONE', #211, #99 ) ;
#79 = FACE_OUTER_BOUND ( 'NONE', #84, .T. ) ;
#80 = ORIENTED_EDGE ( 'NONE', *, *, #136, .F. ) ;
#81 = EDGE_LOOP ( 'NONE', ( #73, #88, #55, #105 ) ) ;
#82 = ORIENTED_EDGE ( 'NONE', *, *, #138, .T. ) ;
#83 = FACE_OUTER_BOUND ( 'NONE', #81, .T. ) ;
#84 = EDGE_LOOP ( 'NONE', ( #58, #62, #106, #63 ) ) ;
#85 = ORIENTED_EDGE ( 'NONE', *, *, #132, .F. ) ;
#86 = CALENDAR_DATE ( 2012, 7, 6 ) ;
#87 = PERSON_AND_ORGANIZATION ( #1, #25 ) ;
#88 = ORIENTED_EDGE ( 'NONE', *, *, #140, .F. ) ;
#89 = FACE_OUTER_BOUND ( 'NONE', #72, .T. ) ;
#90 = ORIENTED_EDGE ( 'NONE', *, *, #134, .T. ) ;
#91 = EDGE_LOOP ( 'NONE', ( #75, #103, #85, #56 ) ) ;
#92 = EDGE_LOOP ( 'NONE', ( #76, #80, #13, #59 ) ) ;
#93 = LINE ( 'NONE', #237, #100 ) ;
#94 = VECTOR ( 'NONE', #236, 1000.000000000000000 ) ;
#95 = ORIENTED_EDGE ( 'NONE', *, *, #132, .T. ) ;
#96 = LINE ( 'NONE', #229, #15 ) ;
#97 = VECTOR ( 'NONE', #220, 1000.000000000000000 ) ;
#98 = FACE_OUTER_BOUND ( 'NONE', #92, .T. ) ;
#99 = VECTOR ( 'NONE', #212, 1000.000000000000000 ) ;
#100 = VECTOR ( 'NONE', #225, 1000.000000000000000 ) ;
#101 = CLOSED_SHELL ( 'NONE', ( #8, #3, #5, #4, #6, #7 ) ) ;
#102 = LINE ( 'NONE', #234, #94 ) ;
#103 = ORIENTED_EDGE ( 'NONE', *, *, #142, .F. ) ;
#104 = VECTOR ( 'NONE', #226, 1000.000000000000000 ) ;
#105 = ORIENTED_EDGE ( 'NONE', *, *, #137, .T. ) ;
#106 = ORIENTED_EDGE ( 'NONE', *, *, #135, .F. ) ;
#107 = APPLICATION_CONTEXT ( 'configuration controlled 3d designs of mechanical parts and assemblies' ) ;
#108 = DIRECTION ( 'NONE',  ( 1.000000000000000000, 0.0000000000000000000, 0.0000000000000000000 ) ) ;
#109 = APPROVAL_STATUS ( 'not_yet_approved' ) ;
#110 = PERSON_AND_ORGANIZATION_ROLE ( 'creator' ) ;
#111 = PERSON_AND_ORGANIZATION_ROLE ( 'classification_officer' ) ;
#112 = APPROVAL_ROLE ( '' ) ;
#113 = APPROVAL_STATUS ( 'not_yet_approved' ) ;
#114 = APPROVAL_ROLE ( '' ) ;
#115 = APPLICATION_PROTOCOL_DEFINITION ( 'international standard', 'config_control_design', 1994, #116 ) ;
#116 = APPLICATION_CONTEXT ( 'configuration controlled 3d designs of mechanical parts and assemblies' ) ;
#117 = PERSON_AND_ORGANIZATION_ROLE ( 'design_owner' ) ;
#118 = DATE_TIME_ROLE ( 'classification_date' ) ;
#119 = MECHANICAL_CONTEXT ( 'NONE', #107, 'mechanical' ) ;
#120 = APPLICATION_PROTOCOL_DEFINITION ( 'international standard', 'config_control_design', 1994, #107 ) ;
#121 = SECURITY_CLASSIFICATION_LEVEL ( 'unclassified' ) ;
#122 = PERSON_AND_ORGANIZATION_ROLE ( 'design_supplier' ) ;
#123 = APPROVAL_STATUS ( 'not_yet_approved' ) ;
#124 = PERSON_AND_ORGANIZATION_ROLE ( 'creator' ) ;
#125 = DATE_TIME_ROLE ( 'creation_date' ) ;
#126 = APPROVAL_ROLE ( '' ) ;
#127 = DESIGN_CONTEXT ( 'detailed design', #116, 'design' ) ;
#128 = PRODUCT_DEFINITION_SHAPE ( 'NONE', 'NONE',  #152 ) ;
#129 = MANIFOLD_SOLID_BREP ( 'Boss-Extrude1', #101 ) ;
#130 = ADVANCED_BREP_SHAPE_REPRESENTATION ( 'BladeGuardSide', ( #129, #133 ), #23 ) ;
#131 = UNCERTAINTY_MEASURE_WITH_UNIT (LENGTH_MEASURE( 1.000000000000000100E-005 ), #173, 'distance_accuracy_value', 'NONE');
#132 = EDGE_CURVE ( 'NONE', #171, #169, #9, .T. ) ;
#133 = AXIS2_PLACEMENT_3D ( 'NONE', #174, #192, #108 ) ;
#134 = EDGE_CURVE ( 'NONE', #169, #214, #70, .T. ) ;
#135 = EDGE_CURVE ( 'NONE', #214, #183, #93, .T. ) ;
#136 = EDGE_CURVE ( 'NONE', #214, #213, #60, .T. ) ;
#137 = EDGE_CURVE ( 'NONE', #183, #221, #11, .T. ) ;
#138 = EDGE_CURVE ( 'NONE', #183, #171, #96, .T. ) ;
#139 = EDGE_CURVE ( 'NONE', #213, #221, #102, .T. ) ;
#140 = EDGE_CURVE ( 'NONE', #171, #186, #17, .T. ) ;
#141 = EDGE_CURVE ( 'NONE', #221, #186, #78, .T. ) ;
#142 = EDGE_CURVE ( 'NONE', #169, #178, #18, .T. ) ;
#143 = EDGE_CURVE ( 'NONE', #186, #178, #65, .T. ) ;
#144 = EDGE_CURVE ( 'NONE', #178, #213, #21, .T. ) ;
#145 = AXIS2_PLACEMENT_3D ( 'NONE', #202, #181, #179 ) ;
#146 = AXIS2_PLACEMENT_3D ( 'NONE', #190, #208, #223 ) ;
#147 = AXIS2_PLACEMENT_3D ( 'NONE', #222, #215, #232 ) ;
#148 = AXIS2_PLACEMENT_3D ( 'NONE', #177, #195, #198 ) ;
#149 = AXIS2_PLACEMENT_3D ( 'NONE', #207, #180, #201 ) ;
#150 = AXIS2_PLACEMENT_3D ( 'NONE', #205, #199, #193 ) ;
#151 = CC_DESIGN_PERSON_AND_ORGANIZATION_ASSIGNMENT ( #26, #117, ( #2 ) ) ;
#152 = PRODUCT_DEFINITION ( 'UNKNOWN', '', #157, #127 ) ;
#153 = APPROVAL ( #113, 'UNSPECIFIED' ) ;
#154 = CC_DESIGN_APPROVAL ( #153, ( #152 ) ) ;
#155 = CC_DESIGN_PERSON_AND_ORGANIZATION_ASSIGNMENT ( #34, #110, ( #152 ) ) ;
#156 = CC_DESIGN_DATE_AND_TIME_ASSIGNMENT ( #61, #125, ( #152 ) ) ;
#157 = PRODUCT_DEFINITION_FORMATION_WITH_SPECIFIED_SOURCE ( 'ANY', '', #2, .NOT_KNOWN. ) ;
#158 = APPROVAL ( #109, 'UNSPECIFIED' ) ;
#159 = CC_DESIGN_APPROVAL ( #158, ( #157 ) ) ;
#160 = CC_DESIGN_PERSON_AND_ORGANIZATION_ASSIGNMENT ( #40, #124, ( #157 ) ) ;
#161 = CC_DESIGN_PERSON_AND_ORGANIZATION_ASSIGNMENT ( #41, #122, ( #157 ) ) ;
#162 = SECURITY_CLASSIFICATION ( '', '', #121 ) ;
#163 = CC_DESIGN_PERSON_AND_ORGANIZATION_ASSIGNMENT ( #42, #111, ( #162 ) ) ;
#164 = CC_DESIGN_DATE_AND_TIME_ASSIGNMENT ( #46, #118, ( #162 ) ) ;
#165 = APPROVAL ( #123, 'UNSPECIFIED' ) ;
#166 = CC_DESIGN_APPROVAL ( #165, ( #162 ) ) ;
#167 = CC_DESIGN_SECURITY_CLASSIFICATION ( #162, ( #157 ) ) ;
#168 = PRODUCT_RELATED_PRODUCT_CATEGORY ( 'detail', '', ( #2 ) ) ;
#169 = VERTEX_POINT ( 'NONE', #203 ) ;
#170 = CARTESIAN_POINT ( 'NONE',  ( 0.0000000000000000000, 0.0000000000000000000, -270.0000000000000000 ) ) ;
#171 = VERTEX_POINT ( 'NONE', #172 ) ;
#172 = CARTESIAN_POINT ( 'NONE',  ( 75.00000000000000000, 1.587499999999999900, 0.0000000000000000000 ) ) ;
#173 =( LENGTH_UNIT ( ) NAMED_UNIT ( * ) SI_UNIT ( .MILLI., .METRE. ) );
#174 = CARTESIAN_POINT ( 'NONE',  ( 0.0000000000000000000, 0.0000000000000000000, 0.0000000000000000000 ) ) ;
#175 = PLANE ( 'NONE',  #149 ) ;
#176 = PLANE ( 'NONE',  #147 ) ;
#177 = CARTESIAN_POINT ( 'NONE',  ( 0.0000000000000000000, 1.587499999999999900, -270.0000000000000000 ) ) ;
#178 = VERTEX_POINT ( 'NONE', #227 ) ;
#179 = DIRECTION ( 'NONE',  ( -1.000000000000000000, 0.0000000000000000000, -0.0000000000000000000 ) ) ;
#180 = DIRECTION ( 'NONE',  ( 0.0000000000000000000, -1.000000000000000000, 0.0000000000000000000 ) ) ;
#181 = DIRECTION ( 'NONE',  ( 0.0000000000000000000, 0.0000000000000000000, -1.000000000000000000 ) ) ;
#182 = CARTESIAN_POINT ( 'NONE',  ( 0.0000000000000000000, 0.0000000000000000000, -270.0000000000000000 ) ) ;
#183 = VERTEX_POINT ( 'NONE', #189 ) ;
#184 = PLANE ( 'NONE',  #145 ) ;
#185 = CARTESIAN_POINT ( 'NONE',  ( 0.0000000000000000000, 0.0000000000000000000, 0.0000000000000000000 ) ) ;
#186 = VERTEX_POINT ( 'NONE', #218 ) ;
#187 = PLANE ( 'NONE',  #146 ) ;
#188 = DIRECTION ( 'NONE',  ( -1.000000000000000000, -0.0000000000000000000, -0.0000000000000000000 ) ) ;
#189 = CARTESIAN_POINT ( 'NONE',  ( 0.0000000000000000000, 1.587499999999999900, 0.0000000000000000000 ) ) ;
#190 = CARTESIAN_POINT ( 'NONE',  ( 0.0000000000000000000, 1.587499999999999900, -270.0000000000000000 ) ) ;
#191 = CARTESIAN_POINT ( 'NONE',  ( 0.0000000000000000000, 1.587499999999999900, -270.0000000000000000 ) ) ;
#192 = DIRECTION ( 'NONE',  ( 0.0000000000000000000, 0.0000000000000000000, 1.000000000000000000 ) ) ;
#193 = DIRECTION ( 'NONE',  ( 0.0000000000000000000, 0.0000000000000000000, -1.000000000000000000 ) ) ;
#194 = DIRECTION ( 'NONE',  ( 1.000000000000000000, 0.0000000000000000000, 0.0000000000000000000 ) ) ;
#195 = DIRECTION ( 'NONE',  ( 0.0000000000000000000, -1.000000000000000000, 0.0000000000000000000 ) ) ;
#196 = PLANE ( 'NONE',  #150 ) ;
#197 = DIRECTION ( 'NONE',  ( 0.0000000000000000000, 0.0000000000000000000, -1.000000000000000000 ) ) ;
#198 = DIRECTION ( 'NONE',  ( 0.0000000000000000000, -0.0000000000000000000, -1.000000000000000000 ) ) ;
#199 = DIRECTION ( 'NONE',  ( 1.000000000000000000, -0.0000000000000000000, 0.0000000000000000000 ) ) ;
#200 = DIRECTION ( 'NONE',  ( -0.0000000000000000000, -1.000000000000000000, -0.0000000000000000000 ) ) ;
#201 = DIRECTION ( 'NONE',  ( 0.0000000000000000000, -0.0000000000000000000, -1.000000000000000000 ) ) ;
#202 = CARTESIAN_POINT ( 'NONE',  ( 0.0000000000000000000, 1.587499999999999900, 0.0000000000000000000 ) ) ;
#203 = CARTESIAN_POINT ( 'NONE',  ( 75.00000000000000000, 1.587499999999999900, -270.0000000000000000 ) ) ;
#204 = CARTESIAN_POINT ( 'NONE',  ( 75.00000000000000000, 0.0000000000000000000, 0.0000000000000000000 ) ) ;
#205 = CARTESIAN_POINT ( 'NONE',  ( 0.0000000000000000000, 1.587499999999999900, 0.0000000000000000000 ) ) ;
#206 = DIRECTION ( 'NONE',  ( 0.0000000000000000000, 0.0000000000000000000, -1.000000000000000000 ) ) ;
#207 = CARTESIAN_POINT ( 'NONE',  ( 0.0000000000000000000, 0.0000000000000000000, -270.0000000000000000 ) ) ;
#208 = DIRECTION ( 'NONE',  ( 0.0000000000000000000, 0.0000000000000000000, 1.000000000000000000 ) ) ;
#209 =( NAMED_UNIT ( * ) SI_UNIT ( $, .STERADIAN. ) SOLID_ANGLE_UNIT ( ) );
#210 = PLANE ( 'NONE',  #148 ) ;
#211 = CARTESIAN_POINT ( 'NONE',  ( 0.0000000000000000000, 0.0000000000000000000, 0.0000000000000000000 ) ) ;
#212 = DIRECTION ( 'NONE',  ( 1.000000000000000000, 0.0000000000000000000, 0.0000000000000000000 ) ) ;
#213 = VERTEX_POINT ( 'NONE', #170 ) ;
#214 = VERTEX_POINT ( 'NONE', #216 ) ;
#215 = DIRECTION ( 'NONE',  ( -1.000000000000000000, 0.0000000000000000000, 0.0000000000000000000 ) ) ;
#216 = CARTESIAN_POINT ( 'NONE',  ( 0.0000000000000000000, 1.587499999999999900, -270.0000000000000000 ) ) ;
#217 = DIRECTION ( 'NONE',  ( -0.0000000000000000000, -1.000000000000000000, -0.0000000000000000000 ) ) ;
#218 = CARTESIAN_POINT ( 'NONE',  ( 75.00000000000000000, 0.0000000000000000000, 0.0000000000000000000 ) ) ;
#219 = CARTESIAN_POINT ( 'NONE',  ( 75.00000000000000000, 1.587499999999999900, 0.0000000000000000000 ) ) ;
#220 = DIRECTION ( 'NONE',  ( -1.000000000000000000, -0.0000000000000000000, -0.0000000000000000000 ) ) ;
#221 = VERTEX_POINT ( 'NONE', #185 ) ;
#222 = CARTESIAN_POINT ( 'NONE',  ( 75.00000000000000000, 1.587499999999999900, 0.0000000000000000000 ) ) ;
#223 = DIRECTION ( 'NONE',  ( 1.000000000000000000, 0.0000000000000000000, -0.0000000000000000000 ) ) ;
#224 =( NAMED_UNIT ( * ) PLANE_ANGLE_UNIT ( ) SI_UNIT ( $, .RADIAN. ) );
#225 = DIRECTION ( 'NONE',  ( -0.0000000000000000000, -0.0000000000000000000, 1.000000000000000000 ) ) ;
#226 = DIRECTION ( 'NONE',  ( -0.0000000000000000000, -1.000000000000000000, -0.0000000000000000000 ) ) ;
#227 = CARTESIAN_POINT ( 'NONE',  ( 75.00000000000000000, 0.0000000000000000000, -270.0000000000000000 ) ) ;
#228 = DIRECTION ( 'NONE',  ( -0.0000000000000000000, -1.000000000000000000, -0.0000000000000000000 ) ) ;
#229 = CARTESIAN_POINT ( 'NONE',  ( 0.0000000000000000000, 1.587499999999999900, 0.0000000000000000000 ) ) ;
#230 = CARTESIAN_POINT ( 'NONE',  ( 0.0000000000000000000, 1.587499999999999900, -270.0000000000000000 ) ) ;
#231 = CARTESIAN_POINT ( 'NONE',  ( 0.0000000000000000000, 1.587499999999999900, 0.0000000000000000000 ) ) ;
#232 = DIRECTION ( 'NONE',  ( 0.0000000000000000000, 0.0000000000000000000, 1.000000000000000000 ) ) ;
#233 = CARTESIAN_POINT ( 'NONE',  ( 75.00000000000000000, 1.587499999999999900, -270.0000000000000000 ) ) ;
#234 = CARTESIAN_POINT ( 'NONE',  ( 0.0000000000000000000, 0.0000000000000000000, 0.0000000000000000000 ) ) ;
#235 = CARTESIAN_POINT ( 'NONE',  ( 75.00000000000000000, 1.587499999999999900, 0.0000000000000000000 ) ) ;
#236 = DIRECTION ( 'NONE',  ( -0.0000000000000000000, -0.0000000000000000000, 1.000000000000000000 ) ) ;
#237 = CARTESIAN_POINT ( 'NONE',  ( 0.0000000000000000000, 1.587499999999999900, 0.0000000000000000000 ) ) ;
ENDSEC;
END-ISO-10303-21;
