ISO-10303-21;
HEADER;
FILE_DESCRIPTION (( 'STEP AP203' ),
    '1' );
FILE_NAME ('SupportThrustWasher.STEP',
    '2012-06-28T00:52:23',
    ( '' ),
    ( '' ),
    'SwSTEP 2.0',
    'SolidWorks 2010',
    '' );
FILE_SCHEMA (( 'CONFIG_CONTROL_DESIGN' ));
ENDSEC;

DATA;
#1 = PERSON_AND_ORGANIZATION ( #204, #69 ) ;
#2 = ORIENTED_EDGE ( 'NONE', *, *, #205, .F. ) ;
#3 = EDGE_LOOP ( 'NONE', ( #75, #4 ) ) ;
#4 = ORIENTED_EDGE ( 'NONE', *, *, #246, .T. ) ;
#5 = ORIENTED_EDGE ( 'NONE', *, *, #210, .F. ) ;
#6 = ORIENTED_EDGE ( 'NONE', *, *, #239, .T. ) ;
#7 = SHAPE_DEFINITION_REPRESENTATION ( #195, #101 ) ;
#8 = CIRCLE ( 'NONE', #211, 16.00000000000000000 ) ;
#9 = ORIENTED_EDGE ( 'NONE', *, *, #239, .F. ) ;
#10 = ORIENTED_EDGE ( 'NONE', *, *, #230, .T. ) ;
#11 = CLOSED_SHELL ( 'NONE', ( #198, #201, #200, #202, #197, #199 ) ) ;
#12 = ORIENTED_EDGE ( 'NONE', *, *, #210, .T. ) ;
#13 = EDGE_LOOP ( 'NONE', ( #66, #57, #12, #82 ) ) ;
#14 = ORIENTED_EDGE ( 'NONE', *, *, #238, .T. ) ;
#15 = CIRCLE ( 'NONE', #241, 25.39999999999999100 ) ;
#16 = ORIENTED_EDGE ( 'NONE', *, *, #246, .F. ) ;
#17 = COORDINATED_UNIVERSAL_TIME_OFFSET ( 6, 0, .BEHIND. ) ;
#18 = PERSON_AND_ORGANIZATION ( #204, #69 ) ;
#19 = LOCAL_TIME ( 19, 52, 23.00000000000000000, #17 ) ;
#20 = CALENDAR_DATE ( 2012, 27, 6 ) ;
#21 = DATE_AND_TIME ( #20, #19 ) ;
#22 = LOCAL_TIME ( 19, 52, 23.00000000000000000, #24 ) ;
#23 = APPROVAL_DATE_TIME ( #87, #235 ) ;
#24 = COORDINATED_UNIVERSAL_TIME_OFFSET ( 6, 0, .BEHIND. ) ;
#25 = PERSON_AND_ORGANIZATION ( #204, #69 ) ;
#26 = EDGE_LOOP ( 'NONE', ( #81, #39 ) ) ;
#27 = CALENDAR_DATE ( 2012, 27, 6 ) ;
#28 = PERSON_AND_ORGANIZATION ( #204, #69 ) ;
#29 = DATE_AND_TIME ( #88, #22 ) ;
#30 = APPROVAL_PERSON_ORGANIZATION ( #33, #217, #187 ) ;
#31 = PERSON_AND_ORGANIZATION ( #204, #69 ) ;
#32 = APPROVAL_DATE_TIME ( #21, #217 ) ;
#33 = PERSON_AND_ORGANIZATION ( #204, #69 ) ;
#34 = COORDINATED_UNIVERSAL_TIME_OFFSET ( 6, 0, .BEHIND. ) ;
#35 =( GEOMETRIC_REPRESENTATION_CONTEXT ( 3 ) GLOBAL_UNCERTAINTY_ASSIGNED_CONTEXT ( ( #100 ) ) GLOBAL_UNIT_ASSIGNED_CONTEXT ( ( #169, #168, #172 ) ) REPRESENTATION_CONTEXT ( 'NONE', 'WORKASPACE' ) );
#36 = LOCAL_TIME ( 19, 52, 23.00000000000000000, #37 ) ;
#37 = COORDINATED_UNIVERSAL_TIME_OFFSET ( 6, 0, .BEHIND. ) ;
#38 = VECTOR ( 'NONE', #155, 1000.000000000000000 ) ;
#39 = ORIENTED_EDGE ( 'NONE', *, *, #249, .T. ) ;
#40 = ORIENTED_EDGE ( 'NONE', *, *, #209, .F. ) ;
#41 = ORIENTED_EDGE ( 'NONE', *, *, #243, .F. ) ;
#42 = VECTOR ( 'NONE', #167, 1000.000000000000000 ) ;
#43 = ORIENTED_EDGE ( 'NONE', *, *, #242, .F. ) ;
#44 = FACE_OUTER_BOUND ( 'NONE', #13, .T. ) ;
#45 = CYLINDRICAL_SURFACE ( 'NONE', #237, 16.00000000000000000 ) ;
#46 = CIRCLE ( 'NONE', #229, 16.00000000000000000 ) ;
#47 = CIRCLE ( 'NONE', #236, 16.00000000000000000 ) ;
#48 = LINE ( 'NONE', #156, #51 ) ;
#49 = APPROVAL_PERSON_ORGANIZATION ( #68, #235, #183 ) ;
#50 = CIRCLE ( 'NONE', #234, 16.00000000000000000 ) ;
#51 = VECTOR ( 'NONE', #163, 1000.000000000000000 ) ;
#52 = CIRCLE ( 'NONE', #208, 25.39999999999999100 ) ;
#53 = LINE ( 'NONE', #148, #38 ) ;
#54 = CIRCLE ( 'NONE', #214, 25.39999999999999100 ) ;
#55 = FACE_OUTER_BOUND ( 'NONE', #26, .T. ) ;
#56 = VECTOR ( 'NONE', #147, 1000.000000000000000 ) ;
#57 = ORIENTED_EDGE ( 'NONE', *, *, #232, .F. ) ;
#58 = ORIENTED_EDGE ( 'NONE', *, *, #248, .T. ) ;
#59 = FACE_OUTER_BOUND ( 'NONE', #71, .T. ) ;
#60 = CYLINDRICAL_SURFACE ( 'NONE', #247, 25.39999999999999100 ) ;
#61 = FACE_OUTER_BOUND ( 'NONE', #73, .T. ) ;
#62 = CIRCLE ( 'NONE', #227, 25.39999999999999100 ) ;
#63 = CYLINDRICAL_SURFACE ( 'NONE', #212, 25.39999999999999100 ) ;
#64 = ORIENTED_EDGE ( 'NONE', *, *, #243, .T. ) ;
#65 = ORIENTED_EDGE ( 'NONE', *, *, #249, .F. ) ;
#66 = ORIENTED_EDGE ( 'NONE', *, *, #238, .F. ) ;
#67 = EDGE_LOOP ( 'NONE', ( #41, #43, #58, #85 ) ) ;
#68 = PERSON_AND_ORGANIZATION ( #204, #69 ) ;
#69 = ORGANIZATION ( 'UNSPECIFIED', 'UNSPECIFIED', '' ) ;
#70 = LINE ( 'NONE', #166, #42 ) ;
#71 = EDGE_LOOP ( 'NONE', ( #65, #14, #10, #5 ) ) ;
#72 = FACE_BOUND ( 'NONE', #77, .T. ) ;
#73 = EDGE_LOOP ( 'NONE', ( #16, #64, #6, #83 ) ) ;
#74 = FACE_OUTER_BOUND ( 'NONE', #78, .T. ) ;
#75 = ORIENTED_EDGE ( 'NONE', *, *, #242, .T. ) ;
#76 = FACE_BOUND ( 'NONE', #3, .T. ) ;
#77 = EDGE_LOOP ( 'NONE', ( #2, #9 ) ) ;
#78 = EDGE_LOOP ( 'NONE', ( #40, #80 ) ) ;
#79 = FACE_OUTER_BOUND ( 'NONE', #67, .T. ) ;
#80 = ORIENTED_EDGE ( 'NONE', *, *, #230, .F. ) ;
#81 = ORIENTED_EDGE ( 'NONE', *, *, #232, .T. ) ;
#82 = ORIENTED_EDGE ( 'NONE', *, *, #209, .T. ) ;
#83 = ORIENTED_EDGE ( 'NONE', *, *, #248, .F. ) ;
#84 = LINE ( 'NONE', #140, #56 ) ;
#85 = ORIENTED_EDGE ( 'NONE', *, *, #205, .T. ) ;
#86 = CYLINDRICAL_SURFACE ( 'NONE', #207, 16.00000000000000000 ) ;
#87 = DATE_AND_TIME ( #27, #36 ) ;
#88 = CALENDAR_DATE ( 2012, 27, 6 ) ;
#89 = LOCAL_TIME ( 19, 52, 23.00000000000000000, #34 ) ;
#90 = CALENDAR_DATE ( 2012, 27, 6 ) ;
#91 = DATE_AND_TIME ( #90, #89 ) ;
#92 = PERSON_AND_ORGANIZATION ( #204, #69 ) ;
#93 = APPROVAL_PERSON_ORGANIZATION ( #92, #225, #194 ) ;
#94 = COORDINATED_UNIVERSAL_TIME_OFFSET ( 6, 0, .BEHIND. ) ;
#95 = LOCAL_TIME ( 19, 52, 23.00000000000000000, #94 ) ;
#96 = CALENDAR_DATE ( 2012, 27, 6 ) ;
#97 = DATE_AND_TIME ( #96, #95 ) ;
#98 = APPROVAL_DATE_TIME ( #97, #225 ) ;
#99 = MANIFOLD_SOLID_BREP ( 'Cut-Extrude1', #11 ) ;
#100 = UNCERTAINTY_MEASURE_WITH_UNIT (LENGTH_MEASURE( 1.000000000000000100E-005 ), #169, 'distance_accuracy_value', 'NONE');
#101 = ADVANCED_BREP_SHAPE_REPRESENTATION ( 'SupportThrustWasher', ( #99, #213 ), #35 ) ;
#102 = VERTEX_POINT ( 'NONE', #114 ) ;
#103 = CARTESIAN_POINT ( 'NONE',  ( 1.959434878635765100E-015, 0.0000000000000000000, -16.00000000000000000 ) ) ;
#104 = CARTESIAN_POINT ( 'NONE',  ( 3.110602869834276100E-015, 5.000000000000000000, 25.39999999999999100 ) ) ;
#105 = VERTEX_POINT ( 'NONE', #112 ) ;
#106 = VERTEX_POINT ( 'NONE', #103 ) ;
#107 = CARTESIAN_POINT ( 'NONE',  ( 0.0000000000000000000, 0.0000000000000000000, 0.0000000000000000000 ) ) ;
#108 = VERTEX_POINT ( 'NONE', #104 ) ;
#109 = VERTEX_POINT ( 'NONE', #113 ) ;
#110 = VERTEX_POINT ( 'NONE', #118 ) ;
#111 = VERTEX_POINT ( 'NONE', #115 ) ;
#112 = CARTESIAN_POINT ( 'NONE',  ( 0.0000000000000000000, 5.000000000000000000, 16.00000000000000000 ) ) ;
#113 = CARTESIAN_POINT ( 'NONE',  ( 3.110602869834276100E-015, 0.0000000000000000000, 25.39999999999999100 ) ) ;
#114 = CARTESIAN_POINT ( 'NONE',  ( 0.0000000000000000000, 0.0000000000000000000, 16.00000000000000000 ) ) ;
#115 = CARTESIAN_POINT ( 'NONE',  ( 1.959434878635765100E-015, 5.000000000000000000, -16.00000000000000000 ) ) ;
#116 = VERTEX_POINT ( 'NONE', #117 ) ;
#117 = CARTESIAN_POINT ( 'NONE',  ( 0.0000000000000000000, 0.0000000000000000000, -25.39999999999999100 ) ) ;
#118 = CARTESIAN_POINT ( 'NONE',  ( 0.0000000000000000000, 5.000000000000000000, -25.39999999999999100 ) ) ;
#119 = CARTESIAN_POINT ( 'NONE',  ( 0.0000000000000000000, 0.0000000000000000000, 0.0000000000000000000 ) ) ;
#120 = PLANE ( 'NONE',  #206 ) ;
#121 = DIRECTION ( 'NONE',  ( 0.0000000000000000000, 0.0000000000000000000, 1.000000000000000000 ) ) ;
#122 = DIRECTION ( 'NONE',  ( -0.0000000000000000000, 1.000000000000000000, -0.0000000000000000000 ) ) ;
#123 = DIRECTION ( 'NONE',  ( 0.0000000000000000000, 1.000000000000000000, 0.0000000000000000000 ) ) ;
#124 = DIRECTION ( 'NONE',  ( 0.0000000000000000000, -0.0000000000000000000, 1.000000000000000000 ) ) ;
#125 = DIRECTION ( 'NONE',  ( 0.0000000000000000000, 0.0000000000000000000, 1.000000000000000000 ) ) ;
#126 = DIRECTION ( 'NONE',  ( 0.0000000000000000000, 0.0000000000000000000, -1.000000000000000000 ) ) ;
#127 = DIRECTION ( 'NONE',  ( -0.0000000000000000000, 1.000000000000000000, -0.0000000000000000000 ) ) ;
#128 = CARTESIAN_POINT ( 'NONE',  ( 0.0000000000000000000, 0.0000000000000000000, 0.0000000000000000000 ) ) ;
#129 = DIRECTION ( 'NONE',  ( 0.0000000000000000000, 0.0000000000000000000, -1.000000000000000000 ) ) ;
#130 = DIRECTION ( 'NONE',  ( -0.0000000000000000000, -1.000000000000000000, -0.0000000000000000000 ) ) ;
#131 = CARTESIAN_POINT ( 'NONE',  ( 0.0000000000000000000, 5.000000000000000000, 0.0000000000000000000 ) ) ;
#132 = DIRECTION ( 'NONE',  ( -0.0000000000000000000, -1.000000000000000000, -0.0000000000000000000 ) ) ;
#133 = CARTESIAN_POINT ( 'NONE',  ( 0.0000000000000000000, 5.000000000000000000, 0.0000000000000000000 ) ) ;
#134 = CARTESIAN_POINT ( 'NONE',  ( 0.0000000000000000000, 5.000000000000000000, 0.0000000000000000000 ) ) ;
#135 = PLANE ( 'NONE',  #245 ) ;
#136 = CARTESIAN_POINT ( 'NONE',  ( 0.0000000000000000000, 5.000000000000000000, 0.0000000000000000000 ) ) ;
#137 = DIRECTION ( 'NONE',  ( 0.0000000000000000000, 1.000000000000000000, 0.0000000000000000000 ) ) ;
#138 = DIRECTION ( 'NONE',  ( 0.0000000000000000000, -0.0000000000000000000, 1.000000000000000000 ) ) ;
#139 = CARTESIAN_POINT ( 'NONE',  ( 0.0000000000000000000, 5.000000000000000000, 0.0000000000000000000 ) ) ;
#140 = CARTESIAN_POINT ( 'NONE',  ( 0.0000000000000000000, 5.000000000000000000, -25.39999999999999100 ) ) ;
#141 = DIRECTION ( 'NONE',  ( 0.0000000000000000000, 1.000000000000000000, 0.0000000000000000000 ) ) ;
#142 = DIRECTION ( 'NONE',  ( 0.0000000000000000000, 0.0000000000000000000, 1.000000000000000000 ) ) ;
#143 = CARTESIAN_POINT ( 'NONE',  ( 0.0000000000000000000, 0.0000000000000000000, 0.0000000000000000000 ) ) ;
#144 = DIRECTION ( 'NONE',  ( 0.0000000000000000000, 1.000000000000000000, 0.0000000000000000000 ) ) ;
#145 = DIRECTION ( 'NONE',  ( 0.0000000000000000000, 0.0000000000000000000, 1.000000000000000000 ) ) ;
#146 = CARTESIAN_POINT ( 'NONE',  ( 0.0000000000000000000, 0.0000000000000000000, 0.0000000000000000000 ) ) ;
#147 = DIRECTION ( 'NONE',  ( -0.0000000000000000000, -1.000000000000000000, -0.0000000000000000000 ) ) ;
#148 = CARTESIAN_POINT ( 'NONE',  ( 3.110602869834276100E-015, 5.000000000000000000, 25.39999999999999100 ) ) ;
#149 = DIRECTION ( 'NONE',  ( 0.0000000000000000000, 1.000000000000000000, 0.0000000000000000000 ) ) ;
#150 = DIRECTION ( 'NONE',  ( 0.0000000000000000000, 0.0000000000000000000, 1.000000000000000000 ) ) ;
#151 = CARTESIAN_POINT ( 'NONE',  ( 0.0000000000000000000, 5.000000000000000000, 0.0000000000000000000 ) ) ;
#152 = DIRECTION ( 'NONE',  ( 0.0000000000000000000, 1.000000000000000000, 0.0000000000000000000 ) ) ;
#153 = DIRECTION ( 'NONE',  ( 0.0000000000000000000, 0.0000000000000000000, 1.000000000000000000 ) ) ;
#154 = CARTESIAN_POINT ( 'NONE',  ( 0.0000000000000000000, 5.000000000000000000, 0.0000000000000000000 ) ) ;
#155 = DIRECTION ( 'NONE',  ( -0.0000000000000000000, -1.000000000000000000, -0.0000000000000000000 ) ) ;
#156 = CARTESIAN_POINT ( 'NONE',  ( 1.959434878635765100E-015, 0.0000000000000000000, -16.00000000000000000 ) ) ;
#157 = DIRECTION ( 'NONE',  ( 0.0000000000000000000, 1.000000000000000000, 0.0000000000000000000 ) ) ;
#158 = DIRECTION ( 'NONE',  ( 0.0000000000000000000, 0.0000000000000000000, 1.000000000000000000 ) ) ;
#159 = CARTESIAN_POINT ( 'NONE',  ( 0.0000000000000000000, 0.0000000000000000000, 0.0000000000000000000 ) ) ;
#160 = DIRECTION ( 'NONE',  ( 0.0000000000000000000, 1.000000000000000000, 0.0000000000000000000 ) ) ;
#161 = DIRECTION ( 'NONE',  ( 0.0000000000000000000, 0.0000000000000000000, 1.000000000000000000 ) ) ;
#162 = CARTESIAN_POINT ( 'NONE',  ( 0.0000000000000000000, 0.0000000000000000000, 0.0000000000000000000 ) ) ;
#163 = DIRECTION ( 'NONE',  ( -0.0000000000000000000, 1.000000000000000000, -0.0000000000000000000 ) ) ;
#164 = DIRECTION ( 'NONE',  ( 0.0000000000000000000, 1.000000000000000000, 0.0000000000000000000 ) ) ;
#165 = DIRECTION ( 'NONE',  ( 0.0000000000000000000, 0.0000000000000000000, 1.000000000000000000 ) ) ;
#166 = CARTESIAN_POINT ( 'NONE',  ( 0.0000000000000000000, 0.0000000000000000000, 16.00000000000000000 ) ) ;
#167 = DIRECTION ( 'NONE',  ( -0.0000000000000000000, 1.000000000000000000, -0.0000000000000000000 ) ) ;
#168 =( NAMED_UNIT ( * ) PLANE_ANGLE_UNIT ( ) SI_UNIT ( $, .RADIAN. ) );
#169 =( LENGTH_UNIT ( ) NAMED_UNIT ( * ) SI_UNIT ( .MILLI., .METRE. ) );
#170 = DIRECTION ( 'NONE',  ( 0.0000000000000000000, 1.000000000000000000, 0.0000000000000000000 ) ) ;
#171 = DIRECTION ( 'NONE',  ( 0.0000000000000000000, 0.0000000000000000000, 1.000000000000000000 ) ) ;
#172 =( NAMED_UNIT ( * ) SI_UNIT ( $, .STERADIAN. ) SOLID_ANGLE_UNIT ( ) );
#173 = CARTESIAN_POINT ( 'NONE',  ( 0.0000000000000000000, 0.0000000000000000000, 0.0000000000000000000 ) ) ;
#174 = DIRECTION ( 'NONE',  ( 0.0000000000000000000, 0.0000000000000000000, 1.000000000000000000 ) ) ;
#175 = DIRECTION ( 'NONE',  ( 1.000000000000000000, 0.0000000000000000000, 0.0000000000000000000 ) ) ;
#176 = APPLICATION_CONTEXT ( 'configuration controlled 3d designs of mechanical parts and assemblies' ) ;
#177 = APPLICATION_PROTOCOL_DEFINITION ( 'international standard', 'config_control_design', 1994, #176 ) ;
#178 = MECHANICAL_CONTEXT ( 'NONE', #176, 'mechanical' ) ;
#179 = PERSON_AND_ORGANIZATION_ROLE ( 'design_owner' ) ;
#180 = APPLICATION_CONTEXT ( 'configuration controlled 3d designs of mechanical parts and assemblies' ) ;
#181 = APPLICATION_PROTOCOL_DEFINITION ( 'international standard', 'config_control_design', 1994, #180 ) ;
#182 = APPROVAL_STATUS ( 'not_yet_approved' ) ;
#183 = APPROVAL_ROLE ( '' ) ;
#184 = PERSON_AND_ORGANIZATION_ROLE ( 'creator' ) ;
#185 = DATE_TIME_ROLE ( 'creation_date' ) ;
#186 = APPROVAL_STATUS ( 'not_yet_approved' ) ;
#187 = APPROVAL_ROLE ( '' ) ;
#188 = PERSON_AND_ORGANIZATION_ROLE ( 'creator' ) ;
#189 = PERSON_AND_ORGANIZATION_ROLE ( 'design_supplier' ) ;
#190 = SECURITY_CLASSIFICATION_LEVEL ( 'unclassified' ) ;
#191 = PERSON_AND_ORGANIZATION_ROLE ( 'classification_officer' ) ;
#192 = DATE_TIME_ROLE ( 'classification_date' ) ;
#193 = APPROVAL_STATUS ( 'not_yet_approved' ) ;
#194 = APPROVAL_ROLE ( '' ) ;
#195 = PRODUCT_DEFINITION_SHAPE ( 'NONE', 'NONE',  #240 ) ;
#196 = DESIGN_CONTEXT ( 'detailed design', #180, 'design' ) ;
#197 = ADVANCED_FACE ( 'NONE', ( #76, #74 ), #120, .F. ) ;
#198 = ADVANCED_FACE ( 'NONE', ( #61 ), #86, .F. ) ;
#199 = ADVANCED_FACE ( 'NONE', ( #79 ), #45, .F. ) ;
#200 = ADVANCED_FACE ( 'NONE', ( #44 ), #60, .T. ) ;
#201 = ADVANCED_FACE ( 'NONE', ( #59 ), #63, .T. ) ;
#202 = ADVANCED_FACE ( 'NONE', ( #72, #55 ), #135, .T. ) ;
#203 = PRODUCT ( 'SupportThrustWasher', 'SupportThrustWasher', '', ( #178 ) ) ;
#204 = PERSON ( 'UNSPECIFIED', 'UNSPECIFIED', 'UNSPECIFIED', ('UNSPECIFIED'), ('UNSPECIFIED'), ('UNSPECIFIED') ) ;
#205 = EDGE_CURVE ( 'NONE', #105, #111, #8, .T. ) ;
#206 = AXIS2_PLACEMENT_3D ( 'NONE', #119, #123, #124 ) ;
#207 = AXIS2_PLACEMENT_3D ( 'NONE', #107, #122, #121 ) ;
#208 = AXIS2_PLACEMENT_3D ( 'NONE', #151, #152, #153 ) ;
#209 = EDGE_CURVE ( 'NONE', #116, #109, #54, .T. ) ;
#210 = EDGE_CURVE ( 'NONE', #110, #116, #84, .T. ) ;
#211 = AXIS2_PLACEMENT_3D ( 'NONE', #139, #141, #142 ) ;
#212 = AXIS2_PLACEMENT_3D ( 'NONE', #133, #132, #129 ) ;
#213 = AXIS2_PLACEMENT_3D ( 'NONE', #173, #174, #175 ) ;
#214 = AXIS2_PLACEMENT_3D ( 'NONE', #143, #144, #145 ) ;
#215 = CC_DESIGN_PERSON_AND_ORGANIZATION_ASSIGNMENT ( #31, #188, ( #221 ) ) ;
#216 = CC_DESIGN_APPROVAL ( #217, ( #221 ) ) ;
#217 = APPROVAL ( #186, 'UNSPECIFIED' ) ;
#218 = SECURITY_CLASSIFICATION ( '', '', #190 ) ;
#219 = CC_DESIGN_PERSON_AND_ORGANIZATION_ASSIGNMENT ( #18, #191, ( #218 ) ) ;
#220 = CC_DESIGN_PERSON_AND_ORGANIZATION_ASSIGNMENT ( #28, #189, ( #221 ) ) ;
#221 = PRODUCT_DEFINITION_FORMATION_WITH_SPECIFIED_SOURCE ( 'ANY', '', #203, .NOT_KNOWN. ) ;
#222 = PRODUCT_RELATED_PRODUCT_CATEGORY ( 'detail', '', ( #203 ) ) ;
#223 = CC_DESIGN_SECURITY_CLASSIFICATION ( #218, ( #221 ) ) ;
#224 = CC_DESIGN_APPROVAL ( #225, ( #218 ) ) ;
#225 = APPROVAL ( #193, 'UNSPECIFIED' ) ;
#226 = CC_DESIGN_DATE_AND_TIME_ASSIGNMENT ( #91, #192, ( #218 ) ) ;
#227 = AXIS2_PLACEMENT_3D ( 'NONE', #136, #170, #171 ) ;
#228 = CC_DESIGN_DATE_AND_TIME_ASSIGNMENT ( #29, #185, ( #240 ) ) ;
#229 = AXIS2_PLACEMENT_3D ( 'NONE', #162, #164, #165 ) ;
#230 = EDGE_CURVE ( 'NONE', #109, #116, #15, .T. ) ;
#231 = CC_DESIGN_PERSON_AND_ORGANIZATION_ASSIGNMENT ( #25, #184, ( #240 ) ) ;
#232 = EDGE_CURVE ( 'NONE', #110, #108, #52, .T. ) ;
#233 = CC_DESIGN_APPROVAL ( #235, ( #240 ) ) ;
#234 = AXIS2_PLACEMENT_3D ( 'NONE', #154, #157, #158 ) ;
#235 = APPROVAL ( #182, 'UNSPECIFIED' ) ;
#236 = AXIS2_PLACEMENT_3D ( 'NONE', #159, #160, #161 ) ;
#237 = AXIS2_PLACEMENT_3D ( 'NONE', #128, #127, #125 ) ;
#238 = EDGE_CURVE ( 'NONE', #108, #109, #53, .T. ) ;
#239 = EDGE_CURVE ( 'NONE', #111, #105, #50, .T. ) ;
#240 = PRODUCT_DEFINITION ( 'UNKNOWN', '', #221, #196 ) ;
#241 = AXIS2_PLACEMENT_3D ( 'NONE', #146, #149, #150 ) ;
#242 = EDGE_CURVE ( 'NONE', #102, #106, #47, .T. ) ;
#243 = EDGE_CURVE ( 'NONE', #106, #111, #48, .T. ) ;
#244 = CC_DESIGN_PERSON_AND_ORGANIZATION_ASSIGNMENT ( #1, #179, ( #203 ) ) ;
#245 = AXIS2_PLACEMENT_3D ( 'NONE', #134, #137, #138 ) ;
#246 = EDGE_CURVE ( 'NONE', #106, #102, #46, .T. ) ;
#247 = AXIS2_PLACEMENT_3D ( 'NONE', #131, #130, #126 ) ;
#248 = EDGE_CURVE ( 'NONE', #102, #105, #70, .T. ) ;
#249 = EDGE_CURVE ( 'NONE', #108, #110, #62, .T. ) ;
ENDSEC;
END-ISO-10303-21;
