ISO-10303-21;
HEADER;
FILE_DESCRIPTION (( 'STEP AP203' ),
    '1' );
FILE_NAME ('SwivelPlate.STEP',
    '2012-06-15T22:58:27',
    ( '' ),
    ( '' ),
    'SwSTEP 2.0',
    'SolidWorks 2010',
    '' );
FILE_SCHEMA (( 'CONFIG_CONTROL_DESIGN' ));
ENDSEC;

DATA;
#1 = AXIS2_PLACEMENT_3D ( 'NONE', #101, #107, #167 ) ;
#2 = AXIS2_PLACEMENT_3D ( 'NONE', #140, #86, #57 ) ;
#3 = EDGE_CURVE ( 'NONE', #151, #68, #261, .T. ) ;
#4 = EDGE_CURVE ( 'NONE', #118, #88, #236, .T. ) ;
#5 = EDGE_CURVE ( 'NONE', #131, #118, #235, .T. ) ;
#6 = EDGE_CURVE ( 'NONE', #68, #151, #209, .T. ) ;
#7 = EDGE_CURVE ( 'NONE', #100, #118, #233, .T. ) ;
#8 = AXIS2_PLACEMENT_3D ( 'NONE', #155, #158, #113 ) ;
#9 = EDGE_CURVE ( 'NONE', #51, #100, #249, .T. ) ;
#10 = EDGE_CURVE ( 'NONE', #59, #131, #252, .T. ) ;
#11 = EDGE_CURVE ( 'NONE', #68, #165, #250, .T. ) ;
#12 = EDGE_CURVE ( 'NONE', #59, #100, #247, .T. ) ;
#13 = EDGE_CURVE ( 'NONE', #131, #54, #266, .T. ) ;
#14 = EDGE_CURVE ( 'NONE', #81, #59, #197, .T. ) ;
#15 = EDGE_CURVE ( 'NONE', #165, #67, #293, .T. ) ;
#16 = EDGE_CURVE ( 'NONE', #54, #88, #188, .T. ) ;
#17 = EDGE_CURVE ( 'NONE', #88, #51, #295, .T. ) ;
#18 = EDGE_CURVE ( 'NONE', #81, #51, #271, .T. ) ;
#19 = EDGE_CURVE ( 'NONE', #67, #165, #267, .T. ) ;
#20 = EDGE_CURVE ( 'NONE', #54, #81, #281, .T. ) ;
#21 = EDGE_CURVE ( 'NONE', #151, #67, #259, .T. ) ;
#22 = AXIS2_PLACEMENT_3D ( 'NONE', #152, #76, #96 ) ;
#23 = AXIS2_PLACEMENT_3D ( 'NONE', #130, #164, #110 ) ;
#24 = AXIS2_PLACEMENT_3D ( 'NONE', #148, #137, #163 ) ;
#25 = AXIS2_PLACEMENT_3D ( 'NONE', #120, #91, #136 ) ;
#26 = AXIS2_PLACEMENT_3D ( 'NONE', #114, #126, #105 ) ;
#27 = AXIS2_PLACEMENT_3D ( 'NONE', #99, #78, #53 ) ;
#28 = AXIS2_PLACEMENT_3D ( 'NONE', #154, #132, #94 ) ;
#29 = AXIS2_PLACEMENT_3D ( 'NONE', #139, #98, #75 ) ;
#30 = AXIS2_PLACEMENT_3D ( 'NONE', #102, #106, #69 ) ;
#31 = AXIS2_PLACEMENT_3D ( 'NONE', #58, #166, #72 ) ;
#32 = CC_DESIGN_PERSON_AND_ORGANIZATION_ASSIGNMENT ( #228, #109, ( #300 ) ) ;
#33 = PRODUCT_DEFINITION ( 'UNKNOWN', '', #38, #311 ) ;
#34 = APPROVAL ( #73, 'UNSPECIFIED' ) ;
#35 = CC_DESIGN_APPROVAL ( #34, ( #33 ) ) ;
#36 = CC_DESIGN_PERSON_AND_ORGANIZATION_ASSIGNMENT ( #174, #56, ( #33 ) ) ;
#37 = CC_DESIGN_DATE_AND_TIME_ASSIGNMENT ( #222, #66, ( #33 ) ) ;
#38 = PRODUCT_DEFINITION_FORMATION_WITH_SPECIFIED_SOURCE ( 'ANY', '', #300, .NOT_KNOWN. ) ;
#39 = APPROVAL ( #149, 'UNSPECIFIED' ) ;
#40 = CC_DESIGN_APPROVAL ( #39, ( #38 ) ) ;
#41 = CC_DESIGN_PERSON_AND_ORGANIZATION_ASSIGNMENT ( #223, #108, ( #38 ) ) ;
#42 = CC_DESIGN_PERSON_AND_ORGANIZATION_ASSIGNMENT ( #217, #160, ( #38 ) ) ;
#43 = SECURITY_CLASSIFICATION ( '', '', #168 ) ;
#44 = CC_DESIGN_PERSON_AND_ORGANIZATION_ASSIGNMENT ( #216, #161, ( #43 ) ) ;
#45 = CC_DESIGN_DATE_AND_TIME_ASSIGNMENT ( #170, #52, ( #43 ) ) ;
#46 = APPROVAL ( #62, 'UNSPECIFIED' ) ;
#47 = CC_DESIGN_APPROVAL ( #46, ( #43 ) ) ;
#48 = CC_DESIGN_SECURITY_CLASSIFICATION ( #43, ( #38 ) ) ;
#49 = PRODUCT_RELATED_PRODUCT_CATEGORY ( 'detail', '', ( #300 ) ) ;
#50 = MANIFOLD_SOLID_BREP ( 'Cut-Extrude2', #202 ) ;
#51 = VERTEX_POINT ( 'NONE', #121 ) ;
#52 = DATE_TIME_ROLE ( 'classification_date' ) ;
#53 = DIRECTION ( 'NONE',  ( 0.0000000000000000000, 0.0000000000000000000, 1.000000000000000000 ) ) ;
#54 = VERTEX_POINT ( 'NONE', #150 ) ;
#55 = DIRECTION ( 'NONE',  ( -0.0000000000000000000, -1.000000000000000000, -0.0000000000000000000 ) ) ;
#56 = PERSON_AND_ORGANIZATION_ROLE ( 'creator' ) ;
#57 = DIRECTION ( 'NONE',  ( 0.0000000000000000000, 0.0000000000000000000, 1.000000000000000000 ) ) ;
#58 = CARTESIAN_POINT ( 'NONE',  ( 100.0000000000000400, 0.0000000000000000000, -55.99999999999999300 ) ) ;
#59 = VERTEX_POINT ( 'NONE', #156 ) ;
#60 =( LENGTH_UNIT ( ) NAMED_UNIT ( * ) SI_UNIT ( .MILLI., .METRE. ) );
#61 = CARTESIAN_POINT ( 'NONE',  ( 100.0000000000000400, 25.39999999999999900, -71.00000000000004300 ) ) ;
#62 = APPROVAL_STATUS ( 'not_yet_approved' ) ;
#63 = CARTESIAN_POINT ( 'NONE',  ( 203.1999999999999900, 25.39999999999999900, 0.0000000000000000000 ) ) ;
#64 = CARTESIAN_POINT ( 'NONE',  ( 203.1999999999999900, 25.39999999999999900, 0.0000000000000000000 ) ) ;
#65 = DIRECTION ( 'NONE',  ( -0.0000000000000000000, -0.0000000000000000000, 1.000000000000000000 ) ) ;
#66 = DATE_TIME_ROLE ( 'creation_date' ) ;
#67 = VERTEX_POINT ( 'NONE', #157 ) ;
#68 = VERTEX_POINT ( 'NONE', #87 ) ;
#69 = DIRECTION ( 'NONE',  ( 0.0000000000000000000, 0.0000000000000000000, 1.000000000000000000 ) ) ;
#70 = APPROVAL_ROLE ( '' ) ;
#71 = PLANE ( 'NONE',  #28 ) ;
#72 = DIRECTION ( 'NONE',  ( 0.0000000000000000000, 0.0000000000000000000, 1.000000000000000000 ) ) ;
#73 = APPROVAL_STATUS ( 'not_yet_approved' ) ;
#74 = CARTESIAN_POINT ( 'NONE',  ( 0.0000000000000000000, 25.39999999999999900, 0.0000000000000000000 ) ) ;
#75 = DIRECTION ( 'NONE',  ( 0.0000000000000000000, 0.0000000000000000000, -1.000000000000000000 ) ) ;
#76 = DIRECTION ( 'NONE',  ( 0.0000000000000000000, 1.000000000000000000, 0.0000000000000000000 ) ) ;
#77 = DIRECTION ( 'NONE',  ( -0.0000000000000000000, -0.0000000000000000000, 1.000000000000000000 ) ) ;
#78 = DIRECTION ( 'NONE',  ( -1.000000000000000000, 0.0000000000000000000, 0.0000000000000000000 ) ) ;
#79 = DIRECTION ( 'NONE',  ( 0.0000000000000000000, 0.0000000000000000000, -1.000000000000000000 ) ) ;
#80 = DIRECTION ( 'NONE',  ( 0.0000000000000000000, 0.0000000000000000000, -1.000000000000000000 ) ) ;
#81 = VERTEX_POINT ( 'NONE', #64 ) ;
#82 = CARTESIAN_POINT ( 'NONE',  ( 0.0000000000000000000, 0.0000000000000000000, -406.3999999999999800 ) ) ;
#83 = CARTESIAN_POINT ( 'NONE',  ( 0.0000000000000000000, 25.39999999999999900, 0.0000000000000000000 ) ) ;
#84 = CARTESIAN_POINT ( 'NONE',  ( 100.0000000000000400, 0.0000000000000000000, -71.00000000000004300 ) ) ;
#85 = CARTESIAN_POINT ( 'NONE',  ( 0.0000000000000000000, 25.39999999999999900, -406.3999999999999800 ) ) ;
#86 = DIRECTION ( 'NONE',  ( 0.0000000000000000000, 1.000000000000000000, 0.0000000000000000000 ) ) ;
#87 = CARTESIAN_POINT ( 'NONE',  ( 100.0000000000000400, 0.0000000000000000000, -71.00000000000004300 ) ) ;
#88 = VERTEX_POINT ( 'NONE', #144 ) ;
#89 = APPLICATION_PROTOCOL_DEFINITION ( 'international standard', 'config_control_design', 1994, #111 ) ;
#90 = CARTESIAN_POINT ( 'NONE',  ( 0.0000000000000000000, 0.0000000000000000000, -406.3999999999999800 ) ) ;
#91 = DIRECTION ( 'NONE',  ( 0.0000000000000000000, 0.0000000000000000000, 1.000000000000000000 ) ) ;
#92 = DIRECTION ( 'NONE',  ( -1.000000000000000000, -0.0000000000000000000, -0.0000000000000000000 ) ) ;
#93 = CARTESIAN_POINT ( 'NONE',  ( 203.1999999999999900, 0.0000000000000000000, 0.0000000000000000000 ) ) ;
#94 = DIRECTION ( 'NONE',  ( -1.000000000000000000, 0.0000000000000000000, -0.0000000000000000000 ) ) ;
#95 = CARTESIAN_POINT ( 'NONE',  ( 0.0000000000000000000, 25.39999999999999900, -406.3999999999999800 ) ) ;
#96 = DIRECTION ( 'NONE',  ( 0.0000000000000000000, 0.0000000000000000000, 1.000000000000000000 ) ) ;
#97 = CARTESIAN_POINT ( 'NONE',  ( 0.0000000000000000000, 25.39999999999999900, -406.3999999999999800 ) ) ;
#98 = DIRECTION ( 'NONE',  ( 1.000000000000000000, -0.0000000000000000000, 0.0000000000000000000 ) ) ;
#99 = CARTESIAN_POINT ( 'NONE',  ( 203.1999999999999900, 25.39999999999999900, 0.0000000000000000000 ) ) ;
#100 = VERTEX_POINT ( 'NONE', #122 ) ;
#101 = CARTESIAN_POINT ( 'NONE',  ( 100.0000000000000400, 25.39999999999999900, -55.99999999999999300 ) ) ;
#102 = CARTESIAN_POINT ( 'NONE',  ( 100.0000000000000400, 0.0000000000000000000, -55.99999999999999300 ) ) ;
#103 = PLANE ( 'NONE',  #26 ) ;
#104 = DIRECTION ( 'NONE',  ( -0.0000000000000000000, 1.000000000000000000, -0.0000000000000000000 ) ) ;
#105 = DIRECTION ( 'NONE',  ( 1.000000000000000000, 0.0000000000000000000, -0.0000000000000000000 ) ) ;
#106 = DIRECTION ( 'NONE',  ( -0.0000000000000000000, 1.000000000000000000, -0.0000000000000000000 ) ) ;
#107 = DIRECTION ( 'NONE',  ( 0.0000000000000000000, 1.000000000000000000, 0.0000000000000000000 ) ) ;
#108 = PERSON_AND_ORGANIZATION_ROLE ( 'creator' ) ;
#109 = PERSON_AND_ORGANIZATION_ROLE ( 'design_owner' ) ;
#110 = DIRECTION ( 'NONE',  ( 0.0000000000000000000, -0.0000000000000000000, -1.000000000000000000 ) ) ;
#111 = APPLICATION_CONTEXT ( 'configuration controlled 3d designs of mechanical parts and assemblies' ) ;
#112 = DIRECTION ( 'NONE',  ( -1.000000000000000000, -0.0000000000000000000, -0.0000000000000000000 ) ) ;
#113 = DIRECTION ( 'NONE',  ( 0.0000000000000000000, 0.0000000000000000000, 1.000000000000000000 ) ) ;
#114 = CARTESIAN_POINT ( 'NONE',  ( 0.0000000000000000000, 25.39999999999999900, -406.3999999999999800 ) ) ;
#115 = PLANE ( 'NONE',  #23 ) ;
#116 = PLANE ( 'NONE',  #24 ) ;
#117 = CARTESIAN_POINT ( 'NONE',  ( 0.0000000000000000000, 25.39999999999999900, 0.0000000000000000000 ) ) ;
#118 = VERTEX_POINT ( 'NONE', #90 ) ;
#119 = APPROVAL_ROLE ( '' ) ;
#120 = CARTESIAN_POINT ( 'NONE',  ( 0.0000000000000000000, 0.0000000000000000000, 0.0000000000000000000 ) ) ;
#121 = CARTESIAN_POINT ( 'NONE',  ( 203.1999999999999900, 0.0000000000000000000, 0.0000000000000000000 ) ) ;
#122 = CARTESIAN_POINT ( 'NONE',  ( 203.1999999999999900, 0.0000000000000000000, -406.3999999999999800 ) ) ;
#123 = DIRECTION ( 'NONE',  ( 1.000000000000000000, 0.0000000000000000000, 0.0000000000000000000 ) ) ;
#124 = PLANE ( 'NONE',  #27 ) ;
#125 = DIRECTION ( 'NONE',  ( -0.0000000000000000000, -1.000000000000000000, -0.0000000000000000000 ) ) ;
#126 = DIRECTION ( 'NONE',  ( 0.0000000000000000000, 0.0000000000000000000, 1.000000000000000000 ) ) ;
#127 = APPLICATION_PROTOCOL_DEFINITION ( 'international standard', 'config_control_design', 1994, #135 ) ;
#128 = APPROVAL_ROLE ( '' ) ;
#129 = MECHANICAL_CONTEXT ( 'NONE', #135, 'mechanical' ) ;
#130 = CARTESIAN_POINT ( 'NONE',  ( 0.0000000000000000000, 0.0000000000000000000, -406.3999999999999800 ) ) ;
#131 = VERTEX_POINT ( 'NONE', #85 ) ;
#132 = DIRECTION ( 'NONE',  ( 0.0000000000000000000, 0.0000000000000000000, -1.000000000000000000 ) ) ;
#133 = CARTESIAN_POINT ( 'NONE',  ( 0.0000000000000000000, 0.0000000000000000000, 0.0000000000000000000 ) ) ;
#134 = CARTESIAN_POINT ( 'NONE',  ( 203.1999999999999900, 25.39999999999999900, -406.3999999999999800 ) ) ;
#135 = APPLICATION_CONTEXT ( 'configuration controlled 3d designs of mechanical parts and assemblies' ) ;
#136 = DIRECTION ( 'NONE',  ( 1.000000000000000000, 0.0000000000000000000, 0.0000000000000000000 ) ) ;
#137 = DIRECTION ( 'NONE',  ( 0.0000000000000000000, -1.000000000000000000, 0.0000000000000000000 ) ) ;
#138 = CARTESIAN_POINT ( 'NONE',  ( 203.1999999999999900, 25.39999999999999900, 0.0000000000000000000 ) ) ;
#139 = CARTESIAN_POINT ( 'NONE',  ( 0.0000000000000000000, 25.39999999999999900, 0.0000000000000000000 ) ) ;
#140 = CARTESIAN_POINT ( 'NONE',  ( 100.0000000000000400, 0.0000000000000000000, -55.99999999999999300 ) ) ;
#141 = DIRECTION ( 'NONE',  ( -0.0000000000000000000, -1.000000000000000000, -0.0000000000000000000 ) ) ;
#142 = DIRECTION ( 'NONE',  ( -0.0000000000000000000, 1.000000000000000000, -0.0000000000000000000 ) ) ;
#143 = CARTESIAN_POINT ( 'NONE',  ( 100.0000000000000400, 0.0000000000000000000, -40.99999999999993600 ) ) ;
#144 = CARTESIAN_POINT ( 'NONE',  ( 0.0000000000000000000, 0.0000000000000000000, 0.0000000000000000000 ) ) ;
#145 = DIRECTION ( 'NONE',  ( 1.000000000000000000, 0.0000000000000000000, 0.0000000000000000000 ) ) ;
#146 = PLANE ( 'NONE',  #29 ) ;
#147 = CARTESIAN_POINT ( 'NONE',  ( 0.0000000000000000000, 0.0000000000000000000, 0.0000000000000000000 ) ) ;
#148 = CARTESIAN_POINT ( 'NONE',  ( 0.0000000000000000000, 25.39999999999999900, -406.3999999999999800 ) ) ;
#149 = APPROVAL_STATUS ( 'not_yet_approved' ) ;
#150 = CARTESIAN_POINT ( 'NONE',  ( 0.0000000000000000000, 25.39999999999999900, 0.0000000000000000000 ) ) ;
#151 = VERTEX_POINT ( 'NONE', #159 ) ;
#152 = CARTESIAN_POINT ( 'NONE',  ( 100.0000000000000400, 25.39999999999999900, -55.99999999999999300 ) ) ;
#153 = DIRECTION ( 'NONE',  ( -0.0000000000000000000, -1.000000000000000000, -0.0000000000000000000 ) ) ;
#154 = CARTESIAN_POINT ( 'NONE',  ( 0.0000000000000000000, 25.39999999999999900, 0.0000000000000000000 ) ) ;
#155 = CARTESIAN_POINT ( 'NONE',  ( 100.0000000000000400, 0.0000000000000000000, -55.99999999999999300 ) ) ;
#156 = CARTESIAN_POINT ( 'NONE',  ( 203.1999999999999900, 25.39999999999999900, -406.3999999999999800 ) ) ;
#157 = CARTESIAN_POINT ( 'NONE',  ( 100.0000000000000400, 25.39999999999999900, -40.99999999999993600 ) ) ;
#158 = DIRECTION ( 'NONE',  ( 0.0000000000000000000, 1.000000000000000000, 0.0000000000000000000 ) ) ;
#159 = CARTESIAN_POINT ( 'NONE',  ( 100.0000000000000400, 0.0000000000000000000, -40.99999999999993600 ) ) ;
#160 = PERSON_AND_ORGANIZATION_ROLE ( 'design_supplier' ) ;
#161 = PERSON_AND_ORGANIZATION_ROLE ( 'classification_officer' ) ;
#162 =( NAMED_UNIT ( * ) PLANE_ANGLE_UNIT ( ) SI_UNIT ( $, .RADIAN. ) );
#163 = DIRECTION ( 'NONE',  ( 0.0000000000000000000, -0.0000000000000000000, -1.000000000000000000 ) ) ;
#164 = DIRECTION ( 'NONE',  ( 0.0000000000000000000, -1.000000000000000000, 0.0000000000000000000 ) ) ;
#165 = VERTEX_POINT ( 'NONE', #61 ) ;
#166 = DIRECTION ( 'NONE',  ( -0.0000000000000000000, 1.000000000000000000, -0.0000000000000000000 ) ) ;
#167 = DIRECTION ( 'NONE',  ( 0.0000000000000000000, 0.0000000000000000000, 1.000000000000000000 ) ) ;
#168 = SECURITY_CLASSIFICATION_LEVEL ( 'unclassified' ) ;
#169 =( NAMED_UNIT ( * ) SI_UNIT ( $, .STERADIAN. ) SOLID_ANGLE_UNIT ( ) );
#170 = DATE_AND_TIME ( #176, #175 ) ;
#171 = CALENDAR_DATE ( 2012, 15, 6 ) ;
#172 = DATE_AND_TIME ( #220, #191 ) ;
#173 = LOCAL_TIME ( 17, 58, 27.00000000000000000, #239 ) ;
#174 = PERSON_AND_ORGANIZATION ( #299, #193 ) ;
#175 = LOCAL_TIME ( 17, 58, 27.00000000000000000, #215 ) ;
#176 = CALENDAR_DATE ( 2012, 15, 6 ) ;
#177 = CALENDAR_DATE ( 2012, 15, 6 ) ;
#178 = LOCAL_TIME ( 17, 58, 27.00000000000000000, #179 ) ;
#179 = COORDINATED_UNIVERSAL_TIME_OFFSET ( 6, 0, .BEHIND. ) ;
#180 = LOCAL_TIME ( 17, 58, 27.00000000000000000, #181 ) ;
#181 = COORDINATED_UNIVERSAL_TIME_OFFSET ( 6, 0, .BEHIND. ) ;
#182 = APPROVAL_PERSON_ORGANIZATION ( #221, #39, #128 ) ;
#183 = ORIENTED_EDGE ( 'NONE', *, *, #9, .F. ) ;
#184 = FACE_OUTER_BOUND ( 'NONE', #287, .T. ) ;
#185 = VECTOR ( 'NONE', #123, 1000.000000000000000 ) ;
#186 = FACE_BOUND ( 'NONE', #292, .T. ) ;
#187 = FACE_OUTER_BOUND ( 'NONE', #219, .T. ) ;
#188 = LINE ( 'NONE', #117, #294 ) ;
#189 = ORIENTED_EDGE ( 'NONE', *, *, #3, .T. ) ;
#190 = FACE_OUTER_BOUND ( 'NONE', #200, .T. ) ;
#191 = LOCAL_TIME ( 17, 58, 27.00000000000000000, #192 ) ;
#192 = COORDINATED_UNIVERSAL_TIME_OFFSET ( 6, 0, .BEHIND. ) ;
#193 = ORGANIZATION ( 'UNSPECIFIED', 'UNSPECIFIED', '' ) ;
#194 = ORIENTED_EDGE ( 'NONE', *, *, #10, .T. ) ;
#195 = VECTOR ( 'NONE', #79, 1000.000000000000000 ) ;
#196 = VECTOR ( 'NONE', #125, 1000.000000000000000 ) ;
#197 = LINE ( 'NONE', #63, #195 ) ;
#198 = EDGE_LOOP ( 'NONE', ( #189, #282 ) ) ;
#199 = ORIENTED_EDGE ( 'NONE', *, *, #21, .F. ) ;
#200 = EDGE_LOOP ( 'NONE', ( #288, #206, #211, #210 ) ) ;
#201 = EDGE_LOOP ( 'NONE', ( #280, #265, #183, #245 ) ) ;
#202 = CLOSED_SHELL ( 'NONE', ( #308, #301, #302, #303, #304, #305, #306, #307 ) ) ;
#203 = FACE_OUTER_BOUND ( 'NONE', #204, .T. ) ;
#204 = EDGE_LOOP ( 'NONE', ( #272, #208, #254, #199 ) ) ;
#205 = VECTOR ( 'NONE', #92, 1000.000000000000000 ) ;
#206 = ORIENTED_EDGE ( 'NONE', *, *, #5, .F. ) ;
#207 = VECTOR ( 'NONE', #141, 1000.000000000000000 ) ;
#208 = ORIENTED_EDGE ( 'NONE', *, *, #11, .T. ) ;
#209 = CIRCLE ( 'NONE', #8, 15.00000000000005500 ) ;
#210 = ORIENTED_EDGE ( 'NONE', *, *, #12, .T. ) ;
#211 = ORIENTED_EDGE ( 'NONE', *, *, #10, .F. ) ;
#212 = CYLINDRICAL_SURFACE ( 'NONE', #30, 15.00000000000005500 ) ;
#213 = ORIENTED_EDGE ( 'NONE', *, *, #19, .F. ) ;
#214 = CYLINDRICAL_SURFACE ( 'NONE', #31, 15.00000000000005500 ) ;
#215 = COORDINATED_UNIVERSAL_TIME_OFFSET ( 6, 0, .BEHIND. ) ;
#216 = PERSON_AND_ORGANIZATION ( #299, #193 ) ;
#217 = PERSON_AND_ORGANIZATION ( #299, #193 ) ;
#218 = VECTOR ( 'NONE', #65, 1000.000000000000000 ) ;
#219 = EDGE_LOOP ( 'NONE', ( #276, #242, #262, #278 ) ) ;
#220 = CALENDAR_DATE ( 2012, 15, 6 ) ;
#221 = PERSON_AND_ORGANIZATION ( #299, #193 ) ;
#222 = DATE_AND_TIME ( #283, #180 ) ;
#223 = PERSON_AND_ORGANIZATION ( #299, #193 ) ;
#224 = APPROVAL_DATE_TIME ( #225, #39 ) ;
#225 = DATE_AND_TIME ( #171, #173 ) ;
#226 = ORIENTED_EDGE ( 'NONE', *, *, #3, .F. ) ;
#227 = PERSON_AND_ORGANIZATION ( #299, #193 ) ;
#228 = PERSON_AND_ORGANIZATION ( #299, #193 ) ;
#229 = APPROVAL_PERSON_ORGANIZATION ( #227, #34, #119 ) ;
#230 = ORIENTED_EDGE ( 'NONE', *, *, #13, .F. ) ;
#231 = VECTOR ( 'NONE', #77, 1000.000000000000000 ) ;
#232 = ORIENTED_EDGE ( 'NONE', *, *, #14, .F. ) ;
#233 = LINE ( 'NONE', #82, #205 ) ;
#234 = EDGE_LOOP ( 'NONE', ( #274, #237, #255, #194 ) ) ;
#235 = LINE ( 'NONE', #95, #207 ) ;
#236 = LINE ( 'NONE', #147, #231 ) ;
#237 = ORIENTED_EDGE ( 'NONE', *, *, #20, .T. ) ;
#238 = ORIENTED_EDGE ( 'NONE', *, *, #15, .F. ) ;
#239 = COORDINATED_UNIVERSAL_TIME_OFFSET ( 6, 0, .BEHIND. ) ;
#240 = APPROVAL_DATE_TIME ( #172, #34 ) ;
#241 = APPROVAL_DATE_TIME ( #286, #46 ) ;
#242 = ORIENTED_EDGE ( 'NONE', *, *, #18, .F. ) ;
#243 = FACE_BOUND ( 'NONE', #198, .T. ) ;
#244 = VECTOR ( 'NONE', #80, 1000.000000000000000 ) ;
#245 = ORIENTED_EDGE ( 'NONE', *, *, #17, .F. ) ;
#246 = EDGE_LOOP ( 'NONE', ( #269, #275, #232, #289 ) ) ;
#247 = LINE ( 'NONE', #134, #196 ) ;
#248 = ORIENTED_EDGE ( 'NONE', *, *, #21, .T. ) ;
#249 = LINE ( 'NONE', #93, #244 ) ;
#250 = LINE ( 'NONE', #84, #256 ) ;
#251 = ORIENTED_EDGE ( 'NONE', *, *, #19, .T. ) ;
#252 = LINE ( 'NONE', #97, #291 ) ;
#253 = ORIENTED_EDGE ( 'NONE', *, *, #16, .F. ) ;
#254 = ORIENTED_EDGE ( 'NONE', *, *, #15, .T. ) ;
#255 = ORIENTED_EDGE ( 'NONE', *, *, #14, .T. ) ;
#256 = VECTOR ( 'NONE', #104, 1000.000000000000000 ) ;
#257 = SHAPE_DEFINITION_REPRESENTATION ( #310, #309 ) ;
#258 =( GEOMETRIC_REPRESENTATION_CONTEXT ( 3 ) GLOBAL_UNCERTAINTY_ASSIGNED_CONTEXT ( ( #298 ) ) GLOBAL_UNIT_ASSIGNED_CONTEXT ( ( #60, #162, #169 ) ) REPRESENTATION_CONTEXT ( 'NONE', 'WORKASPACE' ) );
#259 = LINE ( 'NONE', #143, #264 ) ;
#260 = EDGE_LOOP ( 'NONE', ( #277, #253, #230, #273 ) ) ;
#261 = CIRCLE ( 'NONE', #2, 15.00000000000005500 ) ;
#262 = ORIENTED_EDGE ( 'NONE', *, *, #20, .F. ) ;
#263 = FACE_OUTER_BOUND ( 'NONE', #201, .T. ) ;
#264 = VECTOR ( 'NONE', #142, 1000.000000000000000 ) ;
#265 = ORIENTED_EDGE ( 'NONE', *, *, #7, .F. ) ;
#266 = LINE ( 'NONE', #83, #218 ) ;
#267 = CIRCLE ( 'NONE', #22, 15.00000000000005500 ) ;
#268 = FACE_OUTER_BOUND ( 'NONE', #234, .T. ) ;
#269 = ORIENTED_EDGE ( 'NONE', *, *, #9, .T. ) ;
#270 = VECTOR ( 'NONE', #55, 1000.000000000000000 ) ;
#271 = LINE ( 'NONE', #138, #270 ) ;
#272 = ORIENTED_EDGE ( 'NONE', *, *, #6, .F. ) ;
#273 = ORIENTED_EDGE ( 'NONE', *, *, #5, .T. ) ;
#274 = ORIENTED_EDGE ( 'NONE', *, *, #13, .T. ) ;
#275 = ORIENTED_EDGE ( 'NONE', *, *, #12, .F. ) ;
#276 = ORIENTED_EDGE ( 'NONE', *, *, #17, .T. ) ;
#277 = ORIENTED_EDGE ( 'NONE', *, *, #4, .T. ) ;
#278 = ORIENTED_EDGE ( 'NONE', *, *, #16, .T. ) ;
#279 = FACE_OUTER_BOUND ( 'NONE', #246, .T. ) ;
#280 = ORIENTED_EDGE ( 'NONE', *, *, #4, .F. ) ;
#281 = LINE ( 'NONE', #74, #185 ) ;
#282 = ORIENTED_EDGE ( 'NONE', *, *, #6, .T. ) ;
#283 = CALENDAR_DATE ( 2012, 15, 6 ) ;
#284 = PERSON_AND_ORGANIZATION ( #299, #193 ) ;
#285 = APPROVAL_PERSON_ORGANIZATION ( #284, #46, #70 ) ;
#286 = DATE_AND_TIME ( #177, #178 ) ;
#287 = EDGE_LOOP ( 'NONE', ( #297, #226, #248, #251 ) ) ;
#288 = ORIENTED_EDGE ( 'NONE', *, *, #7, .T. ) ;
#289 = ORIENTED_EDGE ( 'NONE', *, *, #18, .T. ) ;
#290 = VECTOR ( 'NONE', #145, 1000.000000000000000 ) ;
#291 = VECTOR ( 'NONE', #112, 1000.000000000000000 ) ;
#292 = EDGE_LOOP ( 'NONE', ( #213, #238 ) ) ;
#293 = CIRCLE ( 'NONE', #1, 15.00000000000005500 ) ;
#294 = VECTOR ( 'NONE', #153, 1000.000000000000000 ) ;
#295 = LINE ( 'NONE', #133, #290 ) ;
#296 = FACE_OUTER_BOUND ( 'NONE', #260, .T. ) ;
#297 = ORIENTED_EDGE ( 'NONE', *, *, #11, .F. ) ;
#298 = UNCERTAINTY_MEASURE_WITH_UNIT (LENGTH_MEASURE( 1.000000000000000100E-005 ), #60, 'distance_accuracy_value', 'NONE');
#299 = PERSON ( 'UNSPECIFIED', 'UNSPECIFIED', 'UNSPECIFIED', ('UNSPECIFIED'), ('UNSPECIFIED'), ('UNSPECIFIED') ) ;
#300 = PRODUCT ( 'SwivelPlate', 'SwivelPlate', '', ( #129 ) ) ;
#301 = ADVANCED_FACE ( 'NONE', ( #296 ), #146, .F. ) ;
#302 = ADVANCED_FACE ( 'NONE', ( #187 ), #71, .F. ) ;
#303 = ADVANCED_FACE ( 'NONE', ( #279 ), #124, .F. ) ;
#304 = ADVANCED_FACE ( 'NONE', ( #190 ), #103, .F. ) ;
#305 = ADVANCED_FACE ( 'NONE', ( #186, #268 ), #116, .F. ) ;
#306 = ADVANCED_FACE ( 'NONE', ( #243, #263 ), #115, .T. ) ;
#307 = ADVANCED_FACE ( 'NONE', ( #184 ), #212, .F. ) ;
#308 = ADVANCED_FACE ( 'NONE', ( #203 ), #214, .F. ) ;
#309 = ADVANCED_BREP_SHAPE_REPRESENTATION ( 'SwivelPlate', ( #50, #25 ), #258 ) ;
#310 = PRODUCT_DEFINITION_SHAPE ( 'NONE', 'NONE',  #33 ) ;
#311 = DESIGN_CONTEXT ( 'detailed design', #111, 'design' ) ;
ENDSEC;
END-ISO-10303-21;
