ISO-10303-21;
HEADER;
FILE_DESCRIPTION (( 'STEP AP203' ),
    '1' );
FILE_NAME ('CollarSetscrew.STEP',
    '2012-05-25T18:39:32',
    ( '' ),
    ( '' ),
    'SwSTEP 2.0',
    'SolidWorks 2010',
    '' );
FILE_SCHEMA (( 'CONFIG_CONTROL_DESIGN' ));
ENDSEC;

DATA;
#1 = PERSON_AND_ORGANIZATION_ROLE ( 'creator' ) ;
#2 = APPROVAL_STATUS ( 'not_yet_approved' ) ;
#3 = APPROVAL_ROLE ( '' ) ;
#4 = PERSON_AND_ORGANIZATION_ROLE ( 'creator' ) ;
#5 = APPROVAL_ROLE ( '' ) ;
#6 = APPROVAL_STATUS ( 'not_yet_approved' ) ;
#7 = DIRECTION ( 'NONE',  ( 0.0000000000000000000, 1.000000000000000000, 0.0000000000000000000 ) ) ;
#8 =( NAMED_UNIT ( * ) SI_UNIT ( $, .STERADIAN. ) SOLID_ANGLE_UNIT ( ) );
#9 = PERSON_AND_ORGANIZATION_ROLE ( 'design_owner' ) ;
#10 = DIRECTION ( 'NONE',  ( 0.0000000000000000000, 0.0000000000000000000, 1.000000000000000000 ) ) ;
#11 = DATE_TIME_ROLE ( 'creation_date' ) ;
#12 = DATE_TIME_ROLE ( 'classification_date' ) ;
#13 = APPLICATION_CONTEXT ( 'configuration controlled 3d designs of mechanical parts and assemblies' ) ;
#14 = APPLICATION_PROTOCOL_DEFINITION ( 'international standard', 'config_control_design', 1994, #19 ) ;
#15 = CARTESIAN_POINT ( 'NONE',  ( 0.0000000000000000000, 0.0000000000000000000, 0.0000000000000000000 ) ) ;
#16 = DIRECTION ( 'NONE',  ( 1.000000000000000000, 0.0000000000000000000, 0.0000000000000000000 ) ) ;
#17 = SECURITY_CLASSIFICATION_LEVEL ( 'unclassified' ) ;
#18 = APPROVAL_ROLE ( '' ) ;
#19 = APPLICATION_CONTEXT ( 'configuration controlled 3d designs of mechanical parts and assemblies' ) ;
#20 = APPLICATION_PROTOCOL_DEFINITION ( 'international standard', 'config_control_design', 1994, #13 ) ;
#21 = PERSON_AND_ORGANIZATION_ROLE ( 'classification_officer' ) ;
#22 = MECHANICAL_CONTEXT ( 'NONE', #13, 'mechanical' ) ;
#23 = APPROVAL_STATUS ( 'not_yet_approved' ) ;
#24 = PERSON_AND_ORGANIZATION_ROLE ( 'design_supplier' ) ;
#25 = DIRECTION ( 'NONE',  ( 0.0000000000000000000, -0.0000000000000000000, 1.000000000000000000 ) ) ;
#26 = DIRECTION ( 'NONE',  ( 0.0000000000000000000, 1.000000000000000000, 0.0000000000000000000 ) ) ;
#27 = CARTESIAN_POINT ( 'NONE',  ( 0.0000000000000000000, 25.00000000000000000, -4.000000000000000000 ) ) ;
#28 = DIRECTION ( 'NONE',  ( 0.0000000000000000000, 0.0000000000000000000, 1.000000000000000000 ) ) ;
#29 = CARTESIAN_POINT ( 'NONE',  ( 0.0000000000000000000, 25.00000000000000000, 0.0000000000000000000 ) ) ;
#30 = DIRECTION ( 'NONE',  ( 0.0000000000000000000, 1.000000000000000000, 0.0000000000000000000 ) ) ;
#31 = DIRECTION ( 'NONE',  ( 0.0000000000000000000, -0.0000000000000000000, 1.000000000000000000 ) ) ;
#32 = CARTESIAN_POINT ( 'NONE',  ( 0.0000000000000000000, 25.00000000000000000, 0.0000000000000000000 ) ) ;
#33 = DIRECTION ( 'NONE',  ( 0.0000000000000000000, 0.0000000000000000000, -1.000000000000000000 ) ) ;
#34 = DIRECTION ( 'NONE',  ( 0.0000000000000000000, 1.000000000000000000, 0.0000000000000000000 ) ) ;
#35 = DIRECTION ( 'NONE',  ( -0.0000000000000000000, -1.000000000000000000, -0.0000000000000000000 ) ) ;
#36 = CARTESIAN_POINT ( 'NONE',  ( 0.0000000000000000000, 0.0000000000000000000, 0.0000000000000000000 ) ) ;
#37 = PLANE ( 'NONE',  #67 ) ;
#38 =( LENGTH_UNIT ( ) NAMED_UNIT ( * ) SI_UNIT ( .MILLI., .METRE. ) );
#39 = CARTESIAN_POINT ( 'NONE',  ( 0.0000000000000000000, 0.0000000000000000000, 0.0000000000000000000 ) ) ;
#40 = DIRECTION ( 'NONE',  ( -0.0000000000000000000, -1.000000000000000000, -0.0000000000000000000 ) ) ;
#41 = CARTESIAN_POINT ( 'NONE',  ( 0.0000000000000000000, 25.00000000000000000, -4.000000000000000000 ) ) ;
#42 = CARTESIAN_POINT ( 'NONE',  ( 4.898587196589412800E-016, 25.00000000000000000, 4.000000000000000000 ) ) ;
#43 = VERTEX_POINT ( 'NONE', #47 ) ;
#44 = DIRECTION ( 'NONE',  ( 0.0000000000000000000, 1.000000000000000000, 0.0000000000000000000 ) ) ;
#45 = PLANE ( 'NONE',  #77 ) ;
#46 = VERTEX_POINT ( 'NONE', #48 ) ;
#47 = CARTESIAN_POINT ( 'NONE',  ( 0.0000000000000000000, 0.0000000000000000000, -4.000000000000000000 ) ) ;
#48 = CARTESIAN_POINT ( 'NONE',  ( 4.898587196589412800E-016, 0.0000000000000000000, 4.000000000000000000 ) ) ;
#49 = CARTESIAN_POINT ( 'NONE',  ( 4.898587196589412800E-016, 25.00000000000000000, 4.000000000000000000 ) ) ;
#50 = CARTESIAN_POINT ( 'NONE',  ( 0.0000000000000000000, 0.0000000000000000000, 0.0000000000000000000 ) ) ;
#51 = VERTEX_POINT ( 'NONE', #41 ) ;
#52 = DIRECTION ( 'NONE',  ( -0.0000000000000000000, -1.000000000000000000, -0.0000000000000000000 ) ) ;
#53 = CARTESIAN_POINT ( 'NONE',  ( 0.0000000000000000000, 25.00000000000000000, 0.0000000000000000000 ) ) ;
#54 = DIRECTION ( 'NONE',  ( 0.0000000000000000000, 0.0000000000000000000, -1.000000000000000000 ) ) ;
#55 = DIRECTION ( 'NONE',  ( -0.0000000000000000000, -1.000000000000000000, -0.0000000000000000000 ) ) ;
#56 = DIRECTION ( 'NONE',  ( 0.0000000000000000000, 0.0000000000000000000, 1.000000000000000000 ) ) ;
#57 = VERTEX_POINT ( 'NONE', #49 ) ;
#58 = DIRECTION ( 'NONE',  ( 0.0000000000000000000, 0.0000000000000000000, 1.000000000000000000 ) ) ;
#59 = DIRECTION ( 'NONE',  ( 0.0000000000000000000, 1.000000000000000000, 0.0000000000000000000 ) ) ;
#60 =( NAMED_UNIT ( * ) PLANE_ANGLE_UNIT ( ) SI_UNIT ( $, .RADIAN. ) );
#61 = CARTESIAN_POINT ( 'NONE',  ( 0.0000000000000000000, 25.00000000000000000, 0.0000000000000000000 ) ) ;
#62 = DIRECTION ( 'NONE',  ( 0.0000000000000000000, 0.0000000000000000000, 1.000000000000000000 ) ) ;
#63 = CARTESIAN_POINT ( 'NONE',  ( 0.0000000000000000000, 25.00000000000000000, 0.0000000000000000000 ) ) ;
#64 = DESIGN_CONTEXT ( 'detailed design', #19, 'design' ) ;
#65 = PRODUCT_DEFINITION_SHAPE ( 'NONE', 'NONE',  #81 ) ;
#66 = CC_DESIGN_APPROVAL ( #78, ( #98 ) ) ;
#67 = AXIS2_PLACEMENT_3D ( 'NONE', #50, #59, #31 ) ;
#68 = AXIS2_PLACEMENT_3D ( 'NONE', #53, #40, #54 ) ;
#69 = EDGE_CURVE ( 'NONE', #51, #43, #151, .T. ) ;
#70 = CC_DESIGN_SECURITY_CLASSIFICATION ( #98, ( #71 ) ) ;
#71 = PRODUCT_DEFINITION_FORMATION_WITH_SPECIFIED_SOURCE ( 'ANY', '', #167, .NOT_KNOWN. ) ;
#72 = CC_DESIGN_PERSON_AND_ORGANIZATION_ASSIGNMENT ( #131, #24, ( #71 ) ) ;
#73 = APPROVAL ( #23, 'UNSPECIFIED' ) ;
#74 = EDGE_CURVE ( 'NONE', #57, #51, #128, .T. ) ;
#75 = CC_DESIGN_PERSON_AND_ORGANIZATION_ASSIGNMENT ( #117, #9, ( #167 ) ) ;
#76 = CC_DESIGN_APPROVAL ( #73, ( #71 ) ) ;
#77 = AXIS2_PLACEMENT_3D ( 'NONE', #61, #7, #25 ) ;
#78 = APPROVAL ( #6, 'UNSPECIFIED' ) ;
#79 = AXIS2_PLACEMENT_3D ( 'NONE', #63, #35, #33 ) ;
#80 = EDGE_CURVE ( 'NONE', #51, #57, #127, .T. ) ;
#81 = PRODUCT_DEFINITION ( 'UNKNOWN', '', #71, #64 ) ;
#82 = AXIS2_PLACEMENT_3D ( 'NONE', #15, #10, #16 ) ;
#83 = AXIS2_PLACEMENT_3D ( 'NONE', #36, #34, #28 ) ;
#84 = AXIS2_PLACEMENT_3D ( 'NONE', #32, #26, #58 ) ;
#85 = AXIS2_PLACEMENT_3D ( 'NONE', #39, #44, #62 ) ;
#86 = EDGE_CURVE ( 'NONE', #57, #46, #164, .T. ) ;
#87 = CC_DESIGN_DATE_AND_TIME_ASSIGNMENT ( #134, #12, ( #98 ) ) ;
#88 = EDGE_CURVE ( 'NONE', #43, #46, #123, .T. ) ;
#89 = CC_DESIGN_PERSON_AND_ORGANIZATION_ASSIGNMENT ( #135, #21, ( #98 ) ) ;
#90 = AXIS2_PLACEMENT_3D ( 'NONE', #29, #30, #56 ) ;
#91 = EDGE_CURVE ( 'NONE', #46, #43, #122, .T. ) ;
#92 = CC_DESIGN_DATE_AND_TIME_ASSIGNMENT ( #107, #11, ( #81 ) ) ;
#93 = APPROVAL ( #2, 'UNSPECIFIED' ) ;
#94 = CC_DESIGN_APPROVAL ( #93, ( #81 ) ) ;
#95 = CC_DESIGN_PERSON_AND_ORGANIZATION_ASSIGNMENT ( #132, #1, ( #71 ) ) ;
#96 = CC_DESIGN_PERSON_AND_ORGANIZATION_ASSIGNMENT ( #111, #4, ( #81 ) ) ;
#97 = PRODUCT_RELATED_PRODUCT_CATEGORY ( 'detail', '', ( #167 ) ) ;
#98 = SECURITY_CLASSIFICATION ( '', '', #17 ) ;
#99 = DATE_AND_TIME ( #102, #153 ) ;
#100 = PERSON_AND_ORGANIZATION ( #168, #101 ) ;
#101 = ORGANIZATION ( 'UNSPECIFIED', 'UNSPECIFIED', '' ) ;
#102 = CALENDAR_DATE ( 2012, 25, 5 ) ;
#103 = CALENDAR_DATE ( 2012, 25, 5 ) ;
#104 = COORDINATED_UNIVERSAL_TIME_OFFSET ( 6, 0, .BEHIND. ) ;
#105 = APPROVAL_PERSON_ORGANIZATION ( #106, #73, #18 ) ;
#106 = PERSON_AND_ORGANIZATION ( #168, #101 ) ;
#107 = DATE_AND_TIME ( #108, #109 ) ;
#108 = CALENDAR_DATE ( 2012, 25, 5 ) ;
#109 = LOCAL_TIME ( 13, 39, 32.00000000000000000, #110 ) ;
#110 = COORDINATED_UNIVERSAL_TIME_OFFSET ( 6, 0, .BEHIND. ) ;
#111 = PERSON_AND_ORGANIZATION ( #168, #101 ) ;
#112 = APPROVAL_DATE_TIME ( #113, #93 ) ;
#113 = DATE_AND_TIME ( #103, #114 ) ;
#114 = LOCAL_TIME ( 13, 39, 32.00000000000000000, #115 ) ;
#115 = COORDINATED_UNIVERSAL_TIME_OFFSET ( 6, 0, .BEHIND. ) ;
#116 = APPROVAL_PERSON_ORGANIZATION ( #100, #93, #5 ) ;
#117 = PERSON_AND_ORGANIZATION ( #168, #101 ) ;
#118 = SHAPE_DEFINITION_REPRESENTATION ( #65, #171 ) ;
#119 =( GEOMETRIC_REPRESENTATION_CONTEXT ( 3 ) GLOBAL_UNCERTAINTY_ASSIGNED_CONTEXT ( ( #170 ) ) GLOBAL_UNIT_ASSIGNED_CONTEXT ( ( #38, #60, #8 ) ) REPRESENTATION_CONTEXT ( 'NONE', 'WORKASPACE' ) );
#120 = CYLINDRICAL_SURFACE ( 'NONE', #68, 4.000000000000000000 ) ;
#121 = FACE_OUTER_BOUND ( 'NONE', #152, .T. ) ;
#122 = CIRCLE ( 'NONE', #85, 4.000000000000000000 ) ;
#123 = CIRCLE ( 'NONE', #83, 4.000000000000000000 ) ;
#124 = FACE_OUTER_BOUND ( 'NONE', #149, .T. ) ;
#125 = FACE_OUTER_BOUND ( 'NONE', #159, .T. ) ;
#126 = FACE_OUTER_BOUND ( 'NONE', #146, .T. ) ;
#127 = CIRCLE ( 'NONE', #84, 4.000000000000000000 ) ;
#128 = CIRCLE ( 'NONE', #90, 4.000000000000000000 ) ;
#129 = ORIENTED_EDGE ( 'NONE', *, *, #88, .T. ) ;
#130 = ORIENTED_EDGE ( 'NONE', *, *, #91, .T. ) ;
#131 = PERSON_AND_ORGANIZATION ( #168, #101 ) ;
#132 = PERSON_AND_ORGANIZATION ( #168, #101 ) ;
#133 = LOCAL_TIME ( 13, 39, 32.00000000000000000, #137 ) ;
#134 = DATE_AND_TIME ( #144, #133 ) ;
#135 = PERSON_AND_ORGANIZATION ( #168, #101 ) ;
#136 = CALENDAR_DATE ( 2012, 25, 5 ) ;
#137 = COORDINATED_UNIVERSAL_TIME_OFFSET ( 6, 0, .BEHIND. ) ;
#138 = COORDINATED_UNIVERSAL_TIME_OFFSET ( 6, 0, .BEHIND. ) ;
#139 = APPROVAL_DATE_TIME ( #99, #73 ) ;
#140 = LOCAL_TIME ( 13, 39, 32.00000000000000000, #138 ) ;
#141 = DATE_AND_TIME ( #136, #140 ) ;
#142 = APPROVAL_DATE_TIME ( #141, #78 ) ;
#143 = APPROVAL_PERSON_ORGANIZATION ( #154, #78, #3 ) ;
#144 = CALENDAR_DATE ( 2012, 25, 5 ) ;
#145 = ORIENTED_EDGE ( 'NONE', *, *, #86, .T. ) ;
#146 = EDGE_LOOP ( 'NONE', ( #161, #158 ) ) ;
#147 = ORIENTED_EDGE ( 'NONE', *, *, #86, .F. ) ;
#148 = VECTOR ( 'NONE', #55, 1000.000000000000000 ) ;
#149 = EDGE_LOOP ( 'NONE', ( #162, #163 ) ) ;
#150 = VECTOR ( 'NONE', #52, 1000.000000000000000 ) ;
#151 = LINE ( 'NONE', #27, #150 ) ;
#152 = EDGE_LOOP ( 'NONE', ( #147, #157, #160, #129 ) ) ;
#153 = LOCAL_TIME ( 13, 39, 32.00000000000000000, #104 ) ;
#154 = PERSON_AND_ORGANIZATION ( #168, #101 ) ;
#155 = CYLINDRICAL_SURFACE ( 'NONE', #79, 4.000000000000000000 ) ;
#156 = ORIENTED_EDGE ( 'NONE', *, *, #74, .F. ) ;
#157 = ORIENTED_EDGE ( 'NONE', *, *, #80, .F. ) ;
#158 = ORIENTED_EDGE ( 'NONE', *, *, #74, .T. ) ;
#159 = EDGE_LOOP ( 'NONE', ( #156, #145, #130, #165 ) ) ;
#160 = ORIENTED_EDGE ( 'NONE', *, *, #69, .T. ) ;
#161 = ORIENTED_EDGE ( 'NONE', *, *, #80, .T. ) ;
#162 = ORIENTED_EDGE ( 'NONE', *, *, #88, .F. ) ;
#163 = ORIENTED_EDGE ( 'NONE', *, *, #91, .F. ) ;
#164 = LINE ( 'NONE', #42, #148 ) ;
#165 = ORIENTED_EDGE ( 'NONE', *, *, #69, .F. ) ;
#166 = CLOSED_SHELL ( 'NONE', ( #172, #174, #175, #173 ) ) ;
#167 = PRODUCT ( 'CollarSetscrew', 'CollarSetscrew', '', ( #22 ) ) ;
#168 = PERSON ( 'UNSPECIFIED', 'UNSPECIFIED', 'UNSPECIFIED', ('UNSPECIFIED'), ('UNSPECIFIED'), ('UNSPECIFIED') ) ;
#169 = MANIFOLD_SOLID_BREP ( 'Boss-Extrude1', #166 ) ;
#170 = UNCERTAINTY_MEASURE_WITH_UNIT (LENGTH_MEASURE( 1.000000000000000100E-005 ), #38, 'distance_accuracy_value', 'NONE');
#171 = ADVANCED_BREP_SHAPE_REPRESENTATION ( 'CollarSetscrew', ( #169, #82 ), #119 ) ;
#172 = ADVANCED_FACE ( 'NONE', ( #125 ), #155, .T. ) ;
#173 = ADVANCED_FACE ( 'NONE', ( #124 ), #37, .F. ) ;
#174 = ADVANCED_FACE ( 'NONE', ( #121 ), #120, .T. ) ;
#175 = ADVANCED_FACE ( 'NONE', ( #126 ), #45, .T. ) ;
ENDSEC;
END-ISO-10303-21;
