ISO-10303-21;
HEADER;
FILE_DESCRIPTION (( 'STEP AP203' ),
    '1' );
FILE_NAME ('Raiser.STEP',
    '2012-06-27T22:48:14',
    ( '' ),
    ( '' ),
    'SwSTEP 2.0',
    'SolidWorks 2010',
    '' );
FILE_SCHEMA (( 'CONFIG_CONTROL_DESIGN' ));
ENDSEC;

DATA;
#1 = AXIS2_PLACEMENT_3D ( 'NONE', #159, #70, #165 ) ;
#2 = AXIS2_PLACEMENT_3D ( 'NONE', #76, #131, #88 ) ;
#3 = EDGE_CURVE ( 'NONE', #400, #393, #329, .T. ) ;
#4 = EDGE_CURVE ( 'NONE', #396, #389, #337, .T. ) ;
#5 = EDGE_CURVE ( 'NONE', #402, #395, #339, .T. ) ;
#6 = AXIS2_PLACEMENT_3D ( 'NONE', #150, #190, #110 ) ;
#7 = EDGE_CURVE ( 'NONE', #391, #387, #334, .T. ) ;
#8 = EDGE_CURVE ( 'NONE', #393, #399, #224, .T. ) ;
#9 = EDGE_CURVE ( 'NONE', #389, #386, #325, .T. ) ;
#10 = EDGE_CURVE ( 'NONE', #395, #390, #357, .T. ) ;
#11 = EDGE_CURVE ( 'NONE', #398, #386, #345, .T. ) ;
#12 = EDGE_CURVE ( 'NONE', #401, #390, #344, .T. ) ;
#13 = EDGE_CURVE ( 'NONE', #402, #401, #342, .T. ) ;
#14 = EDGE_CURVE ( 'NONE', #384, #389, #350, .T. ) ;
#15 = AXIS2_PLACEMENT_3D ( 'NONE', #404, #405, #403 ) ;
#16 = EDGE_CURVE ( 'NONE', #390, #395, #327, .T. ) ;
#17 = EDGE_CURVE ( 'NONE', #385, #384, #356, .T. ) ;
#18 = EDGE_CURVE ( 'NONE', #407, #399, #330, .T. ) ;
#19 = EDGE_CURVE ( 'NONE', #399, #407, #347, .T. ) ;
#20 = EDGE_CURVE ( 'NONE', #385, #391, #354, .T. ) ;
#21 = EDGE_CURVE ( 'NONE', #393, #400, #377, .T. ) ;
#22 = EDGE_CURVE ( 'NONE', #397, #391, #343, .T. ) ;
#23 = EDGE_CURVE ( 'NONE', #396, #387, #380, .T. ) ;
#24 = EDGE_CURVE ( 'NONE', #400, #407, #381, .T. ) ;
#25 = EDGE_CURVE ( 'NONE', #397, #394, #374, .T. ) ;
#26 = EDGE_CURVE ( 'NONE', #384, #398, #376, .T. ) ;
#27 = EDGE_CURVE ( 'NONE', #394, #387, #379, .T. ) ;
#28 = EDGE_CURVE ( 'NONE', #385, #396, #410, .T. ) ;
#29 = EDGE_CURVE ( 'NONE', #386, #394, #408, .T. ) ;
#30 = EDGE_CURVE ( 'NONE', #398, #397, #415, .T. ) ;
#31 = EDGE_CURVE ( 'NONE', #401, #402, #369, .T. ) ;
#32 = AXIS2_PLACEMENT_3D ( 'NONE', #184, #93, #197 ) ;
#33 = AXIS2_PLACEMENT_3D ( 'NONE', #139, #137, #122 ) ;
#34 = AXIS2_PLACEMENT_3D ( 'NONE', #68, #174, #194 ) ;
#35 = AXIS2_PLACEMENT_3D ( 'NONE', #100, #92, #104 ) ;
#36 = AXIS2_PLACEMENT_3D ( 'NONE', #86, #158, #116 ) ;
#37 = AXIS2_PLACEMENT_3D ( 'NONE', #75, #87, #196 ) ;
#38 = AXIS2_PLACEMENT_3D ( 'NONE', #124, #111, #142 ) ;
#39 = AXIS2_PLACEMENT_3D ( 'NONE', #136, #134, #178 ) ;
#40 = AXIS2_PLACEMENT_3D ( 'NONE', #103, #152, #183 ) ;
#41 = AXIS2_PLACEMENT_3D ( 'NONE', #98, #105, #199 ) ;
#42 = AXIS2_PLACEMENT_3D ( 'NONE', #140, #107, #156 ) ;
#43 = AXIS2_PLACEMENT_3D ( 'NONE', #89, #157, #200 ) ;
#44 = AXIS2_PLACEMENT_3D ( 'NONE', #74, #72, #81 ) ;
#45 = AXIS2_PLACEMENT_3D ( 'NONE', #118, #201, #171 ) ;
#46 = AXIS2_PLACEMENT_3D ( 'NONE', #119, #170, #78 ) ;
#47 = AXIS2_PLACEMENT_3D ( 'NONE', #95, #121, #164 ) ;
#48 = CC_DESIGN_PERSON_AND_ORGANIZATION_ASSIGNMENT ( #291, #128, ( #269 ) ) ;
#49 = APPROVAL ( #114, 'UNSPECIFIED' ) ;
#50 = PRODUCT_DEFINITION ( 'UNKNOWN', '', #54, #418 ) ;
#51 = CC_DESIGN_APPROVAL ( #49, ( #50 ) ) ;
#52 = CC_DESIGN_PERSON_AND_ORGANIZATION_ASSIGNMENT ( #299, #172, ( #50 ) ) ;
#53 = CC_DESIGN_DATE_AND_TIME_ASSIGNMENT ( #303, #179, ( #50 ) ) ;
#54 = PRODUCT_DEFINITION_FORMATION_WITH_SPECIFIED_SOURCE ( 'ANY', '', #269, .NOT_KNOWN. ) ;
#55 = APPROVAL ( #154, 'UNSPECIFIED' ) ;
#56 = CC_DESIGN_APPROVAL ( #55, ( #54 ) ) ;
#57 = CC_DESIGN_PERSON_AND_ORGANIZATION_ASSIGNMENT ( #311, #160, ( #54 ) ) ;
#58 = CC_DESIGN_PERSON_AND_ORGANIZATION_ASSIGNMENT ( #312, #161, ( #54 ) ) ;
#59 = SECURITY_CLASSIFICATION ( '', '', #180 ) ;
#60 = CC_DESIGN_PERSON_AND_ORGANIZATION_ASSIGNMENT ( #313, #185, ( #59 ) ) ;
#61 = CC_DESIGN_DATE_AND_TIME_ASSIGNMENT ( #317, #71, ( #59 ) ) ;
#62 = APPROVAL ( #67, 'UNSPECIFIED' ) ;
#63 = CC_DESIGN_APPROVAL ( #62, ( #59 ) ) ;
#64 = CC_DESIGN_SECURITY_CLASSIFICATION ( #59, ( #54 ) ) ;
#65 = PRODUCT_RELATED_PRODUCT_CATEGORY ( 'detail', '', ( #269 ) ) ;
#66 = CARTESIAN_POINT ( 'NONE',  ( 124.9999999999999700, 0.0000000000000000000, -23.09999999999996900 ) ) ;
#67 = APPROVAL_STATUS ( 'not_yet_approved' ) ;
#68 = CARTESIAN_POINT ( 'NONE',  ( 124.9999999999999700, 25.39999999999999900, -13.09999999999998700 ) ) ;
#69 =( LENGTH_UNIT ( ) NAMED_UNIT ( * ) SI_UNIT ( .MILLI., .METRE. ) );
#70 = DIRECTION ( 'NONE',  ( 0.0000000000000000000, 1.000000000000000000, 0.0000000000000000000 ) ) ;
#71 = DATE_TIME_ROLE ( 'classification_date' ) ;
#72 = DIRECTION ( 'NONE',  ( -0.0000000000000000000, 1.000000000000000000, -0.0000000000000000000 ) ) ;
#73 = CARTESIAN_POINT ( 'NONE',  ( 124.9999999999999900, 0.0000000000000000000, -53.09999999999999400 ) ) ;
#74 = CARTESIAN_POINT ( 'NONE',  ( 124.9999999999999700, 0.0000000000000000000, -13.09999999999998700 ) ) ;
#75 = CARTESIAN_POINT ( 'NONE',  ( -60.04620457611587600, 25.39999999999999900, -76.20000000000000300 ) ) ;
#76 = CARTESIAN_POINT ( 'NONE',  ( 124.9999999999999900, 25.39999999999999900, -63.09999999999998700 ) ) ;
#77 = DIRECTION ( 'NONE',  ( -0.0000000000000000000, -1.000000000000000000, -0.0000000000000000000 ) ) ;
#78 = DIRECTION ( 'NONE',  ( -0.7071067811865473500, 0.0000000000000000000, -0.7071067811865477900 ) ) ;
#79 = CARTESIAN_POINT ( 'NONE',  ( 169.9999999999999700, 0.0000000000000000000, -38.09999999999999400 ) ) ;
#80 = DIRECTION ( 'NONE',  ( 1.000000000000000000, 0.0000000000000000000, 0.0000000000000000000 ) ) ;
#81 = DIRECTION ( 'NONE',  ( 0.0000000000000000000, 0.0000000000000000000, 1.000000000000000000 ) ) ;
#82 = CARTESIAN_POINT ( 'NONE',  ( 54.97689771194209400, 25.39999999999999900, -153.1231022880579400 ) ) ;
#83 = APPROVAL_ROLE ( '' ) ;
#84 = DIRECTION ( 'NONE',  ( 0.7071067811865473500, 0.0000000000000000000, 0.7071067811865477900 ) ) ;
#85 = PLANE ( 'NONE',  #39 ) ;
#86 = CARTESIAN_POINT ( 'NONE',  ( 124.9999999999999900, 0.0000000000000000000, -63.09999999999998700 ) ) ;
#87 = DIRECTION ( 'NONE',  ( 0.0000000000000000000, 0.0000000000000000000, -1.000000000000000000 ) ) ;
#88 = DIRECTION ( 'NONE',  ( 0.0000000000000000000, 0.0000000000000000000, 1.000000000000000000 ) ) ;
#89 = CARTESIAN_POINT ( 'NONE',  ( 124.9999999999999900, 0.0000000000000000000, -63.09999999999998700 ) ) ;
#90 = MECHANICAL_CONTEXT ( 'NONE', #120, 'mechanical' ) ;
#91 = CARTESIAN_POINT ( 'NONE',  ( 131.9000000000000100, 25.39999999999999900, 0.0000000000000000000 ) ) ;
#92 = DIRECTION ( 'NONE',  ( 0.0000000000000000000, 0.0000000000000000000, 1.000000000000000000 ) ) ;
#93 = DIRECTION ( 'NONE',  ( 0.0000000000000000000, 1.000000000000000000, 0.0000000000000000000 ) ) ;
#94 = CARTESIAN_POINT ( 'NONE',  ( 124.9999999999999700, 0.0000000000000000000, -23.09999999999996900 ) ) ;
#95 = CARTESIAN_POINT ( 'NONE',  ( 124.9999999999999700, 0.0000000000000000000, -13.09999999999998700 ) ) ;
#96 = DIRECTION ( 'NONE',  ( -0.7071067811865474600, 0.0000000000000000000, 0.7071067811865474600 ) ) ;
#97 = CARTESIAN_POINT ( 'NONE',  ( 54.97689771194209400, 0.0000000000000000000, -153.1231022880579400 ) ) ;
#98 = CARTESIAN_POINT ( 'NONE',  ( -60.04620457611587600, 25.39999999999999900, -38.10000000000001600 ) ) ;
#99 = APPROVAL_ROLE ( '' ) ;
#100 = CARTESIAN_POINT ( 'NONE',  ( 0.0000000000000000000, 0.0000000000000000000, 0.0000000000000000000 ) ) ;
#101 = PLANE ( 'NONE',  #37 ) ;
#102 = PLANE ( 'NONE',  #38 ) ;
#103 = CARTESIAN_POINT ( 'NONE',  ( 54.97689771194208000, 25.39999999999999900, 76.92310228805793300 ) ) ;
#104 = DIRECTION ( 'NONE',  ( 1.000000000000000000, 0.0000000000000000000, 0.0000000000000000000 ) ) ;
#105 = DIRECTION ( 'NONE',  ( 0.0000000000000000000, 1.000000000000000000, -0.0000000000000000000 ) ) ;
#106 = DIRECTION ( 'NONE',  ( -0.0000000000000000000, 1.000000000000000000, -0.0000000000000000000 ) ) ;
#107 = DIRECTION ( 'NONE',  ( 0.0000000000000000000, 1.000000000000000000, -0.0000000000000000000 ) ) ;
#108 = DIRECTION ( 'NONE',  ( -0.0000000000000000000, 1.000000000000000000, -0.0000000000000000000 ) ) ;
#109 = DIRECTION ( 'NONE',  ( -0.0000000000000000000, -1.000000000000000000, -0.0000000000000000000 ) ) ;
#110 = DIRECTION ( 'NONE',  ( 0.0000000000000000000, 0.0000000000000000000, 1.000000000000000000 ) ) ;
#111 = DIRECTION ( 'NONE',  ( -1.000000000000000000, 0.0000000000000000000, 0.0000000000000000000 ) ) ;
#112 = DIRECTION ( 'NONE',  ( 1.000000000000000000, 0.0000000000000000000, 0.0000000000000000000 ) ) ;
#113 = DIRECTION ( 'NONE',  ( 0.7071067811865473500, 0.0000000000000000000, 0.7071067811865477900 ) ) ;
#114 = APPROVAL_STATUS ( 'not_yet_approved' ) ;
#115 = CARTESIAN_POINT ( 'NONE',  ( 54.97689771194208000, 25.39999999999999900, 76.92310228805793300 ) ) ;
#116 = DIRECTION ( 'NONE',  ( 0.0000000000000000000, 0.0000000000000000000, 1.000000000000000000 ) ) ;
#117 = CARTESIAN_POINT ( 'NONE',  ( 131.9000000000000100, 25.39999999999999900, -76.19999999999998900 ) ) ;
#118 = CARTESIAN_POINT ( 'NONE',  ( 124.9999999999999900, 0.0000000000000000000, -63.09999999999998700 ) ) ;
#119 = CARTESIAN_POINT ( 'NONE',  ( 54.97689771194209400, 25.39999999999999900, -153.1231022880579400 ) ) ;
#120 = APPLICATION_CONTEXT ( 'configuration controlled 3d designs of mechanical parts and assemblies' ) ;
#121 = DIRECTION ( 'NONE',  ( -0.0000000000000000000, 1.000000000000000000, -0.0000000000000000000 ) ) ;
#122 = DIRECTION ( 'NONE',  ( 0.0000000000000000000, 0.0000000000000000000, 1.000000000000000000 ) ) ;
#123 = CARTESIAN_POINT ( 'NONE',  ( 54.97689771194208000, 0.0000000000000000000, 76.92310228805793300 ) ) ;
#124 = CARTESIAN_POINT ( 'NONE',  ( 0.0000000000000000000, 25.39999999999999900, -38.10000000000001600 ) ) ;
#125 = CARTESIAN_POINT ( 'NONE',  ( 124.9999999999999700, 25.39999999999999900, -23.09999999999996900 ) ) ;
#126 = CARTESIAN_POINT ( 'NONE',  ( -60.04620457611587600, 0.0000000000000000000, -76.20000000000000300 ) ) ;
#127 = CARTESIAN_POINT ( 'NONE',  ( 124.9999999999999900, 25.39999999999999900, -53.09999999999999400 ) ) ;
#128 = PERSON_AND_ORGANIZATION_ROLE ( 'design_owner' ) ;
#129 = CARTESIAN_POINT ( 'NONE',  ( 169.9999999999999700, 25.39999999999999900, -38.09999999999999400 ) ) ;
#130 = CARTESIAN_POINT ( 'NONE',  ( -60.04620457611587600, 25.39999999999999900, -76.20000000000000300 ) ) ;
#131 = DIRECTION ( 'NONE',  ( 0.0000000000000000000, 1.000000000000000000, 0.0000000000000000000 ) ) ;
#132 = CARTESIAN_POINT ( 'NONE',  ( 0.0000000000000000000, 25.39999999999999900, -38.10000000000001600 ) ) ;
#133 = PLANE ( 'NONE',  #40 ) ;
#134 = DIRECTION ( 'NONE',  ( 0.0000000000000000000, 0.0000000000000000000, -1.000000000000000000 ) ) ;
#135 = CARTESIAN_POINT ( 'NONE',  ( 124.9999999999999900, 25.39999999999999900, -73.09999999999998000 ) ) ;
#136 = CARTESIAN_POINT ( 'NONE',  ( -60.04620457611587600, 25.39999999999999900, 0.0000000000000000000 ) ) ;
#137 = DIRECTION ( 'NONE',  ( 0.0000000000000000000, 1.000000000000000000, 0.0000000000000000000 ) ) ;
#138 = CARTESIAN_POINT ( 'NONE',  ( 0.0000000000000000000, 0.0000000000000000000, -76.20000000000000300 ) ) ;
#139 = CARTESIAN_POINT ( 'NONE',  ( 124.9999999999999700, 25.39999999999999900, -13.09999999999998700 ) ) ;
#140 = CARTESIAN_POINT ( 'NONE',  ( -60.04620457611587600, 0.0000000000000000000, -38.10000000000001600 ) ) ;
#141 = CARTESIAN_POINT ( 'NONE',  ( 131.9000000000000100, 0.0000000000000000000, -76.19999999999998900 ) ) ;
#142 = DIRECTION ( 'NONE',  ( 0.0000000000000000000, 0.0000000000000000000, 1.000000000000000000 ) ) ;
#143 = DIRECTION ( 'NONE',  ( -0.0000000000000000000, 1.000000000000000000, -0.0000000000000000000 ) ) ;
#144 = APPLICATION_PROTOCOL_DEFINITION ( 'international standard', 'config_control_design', 1994, #120 ) ;
#145 = CARTESIAN_POINT ( 'NONE',  ( 124.9999999999999900, 0.0000000000000000000, -53.09999999999999400 ) ) ;
#146 = PLANE ( 'NONE',  #46 ) ;
#147 = CARTESIAN_POINT ( 'NONE',  ( 124.9999999999999900, 0.0000000000000000000, -73.09999999999998000 ) ) ;
#148 = PLANE ( 'NONE',  #41 ) ;
#149 = CARTESIAN_POINT ( 'NONE',  ( 124.9999999999999700, 0.0000000000000000000, -3.100000000000007200 ) ) ;
#150 = CARTESIAN_POINT ( 'NONE',  ( 124.9999999999999900, 25.39999999999999900, -63.09999999999998700 ) ) ;
#151 = DIRECTION ( 'NONE',  ( 1.000000000000000000, 0.0000000000000000000, 0.0000000000000000000 ) ) ;
#152 = DIRECTION ( 'NONE',  ( 0.7071067811865475700, -0.0000000000000000000, 0.7071067811865475700 ) ) ;
#153 = CARTESIAN_POINT ( 'NONE',  ( 0.0000000000000000000, 25.39999999999999900, 0.0000000000000000000 ) ) ;
#154 = APPROVAL_STATUS ( 'not_yet_approved' ) ;
#155 = APPROVAL_ROLE ( '' ) ;
#156 = DIRECTION ( 'NONE',  ( 0.0000000000000000000, 0.0000000000000000000, 1.000000000000000000 ) ) ;
#157 = DIRECTION ( 'NONE',  ( -0.0000000000000000000, 1.000000000000000000, -0.0000000000000000000 ) ) ;
#158 = DIRECTION ( 'NONE',  ( 0.0000000000000000000, 1.000000000000000000, 0.0000000000000000000 ) ) ;
#159 = CARTESIAN_POINT ( 'NONE',  ( 124.9999999999999700, 0.0000000000000000000, -13.09999999999998700 ) ) ;
#160 = PERSON_AND_ORGANIZATION_ROLE ( 'creator' ) ;
#161 = PERSON_AND_ORGANIZATION_ROLE ( 'design_supplier' ) ;
#162 = CARTESIAN_POINT ( 'NONE',  ( 124.9999999999999700, 0.0000000000000000000, -3.100000000000007200 ) ) ;
#163 = CARTESIAN_POINT ( 'NONE',  ( 0.0000000000000000000, 25.39999999999999900, -76.20000000000000300 ) ) ;
#164 = DIRECTION ( 'NONE',  ( 0.0000000000000000000, 0.0000000000000000000, 1.000000000000000000 ) ) ;
#165 = DIRECTION ( 'NONE',  ( 0.0000000000000000000, 0.0000000000000000000, 1.000000000000000000 ) ) ;
#166 = CARTESIAN_POINT ( 'NONE',  ( -60.04620457611587600, 25.39999999999999900, 0.0000000000000000000 ) ) ;
#167 =( NAMED_UNIT ( * ) PLANE_ANGLE_UNIT ( ) SI_UNIT ( $, .RADIAN. ) );
#168 = CARTESIAN_POINT ( 'NONE',  ( -60.04620457611587600, 0.0000000000000000000, 0.0000000000000000000 ) ) ;
#169 = PLANE ( 'NONE',  #42 ) ;
#170 = DIRECTION ( 'NONE',  ( 0.7071067811865477900, 0.0000000000000000000, -0.7071067811865473500 ) ) ;
#171 = DIRECTION ( 'NONE',  ( 0.0000000000000000000, 0.0000000000000000000, 1.000000000000000000 ) ) ;
#172 = PERSON_AND_ORGANIZATION_ROLE ( 'creator' ) ;
#173 =( NAMED_UNIT ( * ) SI_UNIT ( $, .STERADIAN. ) SOLID_ANGLE_UNIT ( ) );
#174 = DIRECTION ( 'NONE',  ( 0.0000000000000000000, 1.000000000000000000, 0.0000000000000000000 ) ) ;
#175 = DIRECTION ( 'NONE',  ( 0.0000000000000000000, 0.0000000000000000000, -1.000000000000000000 ) ) ;
#176 = DIRECTION ( 'NONE',  ( -0.7071067811865474600, 0.0000000000000000000, 0.7071067811865474600 ) ) ;
#177 = CARTESIAN_POINT ( 'NONE',  ( 0.0000000000000000000, 25.39999999999999900, 0.0000000000000000000 ) ) ;
#178 = DIRECTION ( 'NONE',  ( -1.000000000000000000, 0.0000000000000000000, -0.0000000000000000000 ) ) ;
#179 = DATE_TIME_ROLE ( 'creation_date' ) ;
#180 = SECURITY_CLASSIFICATION_LEVEL ( 'unclassified' ) ;
#181 = DIRECTION ( 'NONE',  ( 1.000000000000000000, 0.0000000000000000000, 0.0000000000000000000 ) ) ;
#182 = APPLICATION_CONTEXT ( 'configuration controlled 3d designs of mechanical parts and assemblies' ) ;
#183 = DIRECTION ( 'NONE',  ( 0.7071067811865474600, 0.0000000000000000000, -0.7071067811865474600 ) ) ;
#184 = CARTESIAN_POINT ( 'NONE',  ( 124.9999999999999900, 0.0000000000000000000, -63.09999999999998700 ) ) ;
#185 = PERSON_AND_ORGANIZATION_ROLE ( 'classification_officer' ) ;
#186 = APPLICATION_PROTOCOL_DEFINITION ( 'international standard', 'config_control_design', 1994, #182 ) ;
#187 = CARTESIAN_POINT ( 'NONE',  ( 0.0000000000000000000, 25.39999999999999900, -76.20000000000000300 ) ) ;
#188 = CARTESIAN_POINT ( 'NONE',  ( 131.9000000000000100, 0.0000000000000000000, 0.0000000000000000000 ) ) ;
#189 = DIRECTION ( 'NONE',  ( -0.0000000000000000000, -1.000000000000000000, -0.0000000000000000000 ) ) ;
#190 = DIRECTION ( 'NONE',  ( 0.0000000000000000000, 1.000000000000000000, 0.0000000000000000000 ) ) ;
#191 = DIRECTION ( 'NONE',  ( -0.0000000000000000000, -1.000000000000000000, -0.0000000000000000000 ) ) ;
#192 = CARTESIAN_POINT ( 'NONE',  ( 124.9999999999999700, 25.39999999999999900, -3.100000000000007200 ) ) ;
#193 = CARTESIAN_POINT ( 'NONE',  ( 131.9000000000000100, 25.39999999999999900, -76.19999999999998900 ) ) ;
#194 = DIRECTION ( 'NONE',  ( 0.0000000000000000000, 0.0000000000000000000, 1.000000000000000000 ) ) ;
#195 = CARTESIAN_POINT ( 'NONE',  ( 169.9999999999999700, 25.39999999999999900, -38.09999999999999400 ) ) ;
#196 = DIRECTION ( 'NONE',  ( -1.000000000000000000, 0.0000000000000000000, -0.0000000000000000000 ) ) ;
#197 = DIRECTION ( 'NONE',  ( 0.0000000000000000000, 0.0000000000000000000, 1.000000000000000000 ) ) ;
#198 = DIRECTION ( 'NONE',  ( -0.0000000000000000000, -1.000000000000000000, -0.0000000000000000000 ) ) ;
#199 = DIRECTION ( 'NONE',  ( 0.0000000000000000000, 0.0000000000000000000, 1.000000000000000000 ) ) ;
#200 = DIRECTION ( 'NONE',  ( 0.0000000000000000000, 0.0000000000000000000, 1.000000000000000000 ) ) ;
#201 = DIRECTION ( 'NONE',  ( -0.0000000000000000000, 1.000000000000000000, -0.0000000000000000000 ) ) ;
#202 = CARTESIAN_POINT ( 'NONE',  ( 0.0000000000000000000, 0.0000000000000000000, 0.0000000000000000000 ) ) ;
#203 = EDGE_LOOP ( 'NONE', ( #215, #217, #216, #245 ) ) ;
#204 = ORIENTED_EDGE ( 'NONE', *, *, #29, .T. ) ;
#205 = ORIENTED_EDGE ( 'NONE', *, *, #16, .F. ) ;
#206 = ORIENTED_EDGE ( 'NONE', *, *, #3, .T. ) ;
#207 = ORIENTED_EDGE ( 'NONE', *, *, #26, .F. ) ;
#208 = ORIENTED_EDGE ( 'NONE', *, *, #4, .F. ) ;
#209 = ORIENTED_EDGE ( 'NONE', *, *, #12, .T. ) ;
#210 = ORIENTED_EDGE ( 'NONE', *, *, #14, .T. ) ;
#211 = ORIENTED_EDGE ( 'NONE', *, *, #28, .F. ) ;
#212 = ORIENTED_EDGE ( 'NONE', *, *, #31, .T. ) ;
#213 = ORIENTED_EDGE ( 'NONE', *, *, #27, .F. ) ;
#214 = EDGE_LOOP ( 'NONE', ( #232, #233, #231, #264 ) ) ;
#215 = ORIENTED_EDGE ( 'NONE', *, *, #23, .T. ) ;
#216 = ORIENTED_EDGE ( 'NONE', *, *, #20, .F. ) ;
#217 = ORIENTED_EDGE ( 'NONE', *, *, #7, .F. ) ;
#218 = ORIENTED_EDGE ( 'NONE', *, *, #17, .T. ) ;
#219 = ORIENTED_EDGE ( 'NONE', *, *, #11, .T. ) ;
#220 = ORIENTED_EDGE ( 'NONE', *, *, #26, .T. ) ;
#221 = ORIENTED_EDGE ( 'NONE', *, *, #8, .F. ) ;
#222 = ORIENTED_EDGE ( 'NONE', *, *, #14, .F. ) ;
#223 = ORIENTED_EDGE ( 'NONE', *, *, #9, .F. ) ;
#224 = LINE ( 'NONE', #149, #348 ) ;
#225 = CLOSED_SHELL ( 'NONE', ( #368, #366, #367, #358, #359, #360, #361, #362, #363, #364, #365 ) ) ;
#226 = ORIENTED_EDGE ( 'NONE', *, *, #5, .T. ) ;
#227 = ORIENTED_EDGE ( 'NONE', *, *, #22, .F. ) ;
#228 = ORIENTED_EDGE ( 'NONE', *, *, #18, .T. ) ;
#229 = ORIENTED_EDGE ( 'NONE', *, *, #12, .F. ) ;
#230 = ORIENTED_EDGE ( 'NONE', *, *, #13, .F. ) ;
#231 = ORIENTED_EDGE ( 'NONE', *, *, #30, .T. ) ;
#232 = ORIENTED_EDGE ( 'NONE', *, *, #29, .F. ) ;
#233 = ORIENTED_EDGE ( 'NONE', *, *, #11, .F. ) ;
#234 = EDGE_LOOP ( 'NONE', ( #208, #211, #218, #210 ) ) ;
#235 = ORIENTED_EDGE ( 'NONE', *, *, #10, .T. ) ;
#236 = EDGE_LOOP ( 'NONE', ( #253, #261, #241, #255 ) ) ;
#237 = ORIENTED_EDGE ( 'NONE', *, *, #9, .T. ) ;
#238 = ORIENTED_EDGE ( 'NONE', *, *, #27, .T. ) ;
#239 = ORIENTED_EDGE ( 'NONE', *, *, #4, .T. ) ;
#240 = EDGE_LOOP ( 'NONE', ( #247, #207, #248, #244, #227 ) ) ;
#241 = ORIENTED_EDGE ( 'NONE', *, *, #8, .T. ) ;
#242 = ORIENTED_EDGE ( 'NONE', *, *, #23, .F. ) ;
#243 = ORIENTED_EDGE ( 'NONE', *, *, #16, .T. ) ;
#244 = ORIENTED_EDGE ( 'NONE', *, *, #20, .T. ) ;
#245 = ORIENTED_EDGE ( 'NONE', *, *, #28, .T. ) ;
#246 = ORIENTED_EDGE ( 'NONE', *, *, #25, .F. ) ;
#247 = ORIENTED_EDGE ( 'NONE', *, *, #30, .F. ) ;
#248 = ORIENTED_EDGE ( 'NONE', *, *, #17, .F. ) ;
#249 = ORIENTED_EDGE ( 'NONE', *, *, #31, .F. ) ;
#250 = ORIENTED_EDGE ( 'NONE', *, *, #13, .T. ) ;
#251 = EDGE_LOOP ( 'NONE', ( #212, #250 ) ) ;
#252 = EDGE_LOOP ( 'NONE', ( #265, #206 ) ) ;
#253 = ORIENTED_EDGE ( 'NONE', *, *, #24, .F. ) ;
#254 = ORIENTED_EDGE ( 'NONE', *, *, #19, .F. ) ;
#255 = ORIENTED_EDGE ( 'NONE', *, *, #19, .T. ) ;
#256 = EDGE_LOOP ( 'NONE', ( #267, #353, #228, #221 ) ) ;
#257 = ORIENTED_EDGE ( 'NONE', *, *, #7, .T. ) ;
#258 = EDGE_LOOP ( 'NONE', ( #266, #249, #209, #243 ) ) ;
#259 = EDGE_LOOP ( 'NONE', ( #254, #260 ) ) ;
#260 = ORIENTED_EDGE ( 'NONE', *, *, #18, .F. ) ;
#261 = ORIENTED_EDGE ( 'NONE', *, *, #21, .F. ) ;
#262 = ORIENTED_EDGE ( 'NONE', *, *, #22, .T. ) ;
#263 = ORIENTED_EDGE ( 'NONE', *, *, #10, .F. ) ;
#264 = ORIENTED_EDGE ( 'NONE', *, *, #25, .T. ) ;
#265 = ORIENTED_EDGE ( 'NONE', *, *, #21, .T. ) ;
#266 = ORIENTED_EDGE ( 'NONE', *, *, #5, .F. ) ;
#267 = ORIENTED_EDGE ( 'NONE', *, *, #3, .F. ) ;
#268 = PERSON ( 'UNSPECIFIED', 'UNSPECIFIED', 'UNSPECIFIED', ('UNSPECIFIED'), ('UNSPECIFIED'), ('UNSPECIFIED') ) ;
#269 = PRODUCT ( 'Raiser', 'Raiser', '', ( #90 ) ) ;
#270 = UNCERTAINTY_MEASURE_WITH_UNIT (LENGTH_MEASURE( 1.000000000000000100E-005 ), #69, 'distance_accuracy_value', 'NONE');
#271 = ADVANCED_BREP_SHAPE_REPRESENTATION ( 'Raiser', ( #413, #35 ), #288 ) ;
#272 = FACE_OUTER_BOUND ( 'NONE', #258, .T. ) ;
#273 = FACE_BOUND ( 'NONE', #259, .T. ) ;
#274 = FACE_OUTER_BOUND ( 'NONE', #355, .T. ) ;
#275 = FACE_OUTER_BOUND ( 'NONE', #256, .T. ) ;
#276 = FACE_BOUND ( 'NONE', #335, .T. ) ;
#277 = FACE_BOUND ( 'NONE', #251, .T. ) ;
#278 = FACE_BOUND ( 'NONE', #252, .T. ) ;
#279 = FACE_OUTER_BOUND ( 'NONE', #240, .T. ) ;
#280 = FACE_OUTER_BOUND ( 'NONE', #351, .T. ) ;
#281 = CYLINDRICAL_SURFACE ( 'NONE', #43, 9.999999999999994700 ) ;
#282 = FACE_OUTER_BOUND ( 'NONE', #352, .T. ) ;
#283 = FACE_OUTER_BOUND ( 'NONE', #236, .T. ) ;
#284 = FACE_OUTER_BOUND ( 'NONE', #214, .T. ) ;
#285 = CYLINDRICAL_SURFACE ( 'NONE', #44, 9.999999999999978700 ) ;
#286 = CYLINDRICAL_SURFACE ( 'NONE', #45, 9.999999999999994700 ) ;
#287 = CYLINDRICAL_SURFACE ( 'NONE', #47, 9.999999999999978700 ) ;
#288 =( GEOMETRIC_REPRESENTATION_CONTEXT ( 3 ) GLOBAL_UNCERTAINTY_ASSIGNED_CONTEXT ( ( #270 ) ) GLOBAL_UNIT_ASSIGNED_CONTEXT ( ( #69, #167, #173 ) ) REPRESENTATION_CONTEXT ( 'NONE', 'WORKASPACE' ) );
#289 = SHAPE_DEFINITION_REPRESENTATION ( #417, #271 ) ;
#290 = ORGANIZATION ( 'UNSPECIFIED', 'UNSPECIFIED', '' ) ;
#291 = PERSON_AND_ORGANIZATION ( #268, #290 ) ;
#292 = PERSON_AND_ORGANIZATION ( #268, #290 ) ;
#293 = APPROVAL_PERSON_ORGANIZATION ( #292, #49, #99 ) ;
#294 = COORDINATED_UNIVERSAL_TIME_OFFSET ( 6, 0, .BEHIND. ) ;
#295 = LOCAL_TIME ( 17, 48, 14.00000000000000000, #294 ) ;
#296 = CALENDAR_DATE ( 2012, 27, 6 ) ;
#297 = DATE_AND_TIME ( #296, #295 ) ;
#298 = APPROVAL_DATE_TIME ( #297, #49 ) ;
#299 = PERSON_AND_ORGANIZATION ( #268, #290 ) ;
#300 = COORDINATED_UNIVERSAL_TIME_OFFSET ( 6, 0, .BEHIND. ) ;
#301 = LOCAL_TIME ( 17, 48, 14.00000000000000000, #300 ) ;
#302 = CALENDAR_DATE ( 2012, 27, 6 ) ;
#303 = DATE_AND_TIME ( #302, #301 ) ;
#304 = PERSON_AND_ORGANIZATION ( #268, #290 ) ;
#305 = APPROVAL_PERSON_ORGANIZATION ( #304, #55, #155 ) ;
#306 = COORDINATED_UNIVERSAL_TIME_OFFSET ( 6, 0, .BEHIND. ) ;
#307 = LOCAL_TIME ( 17, 48, 14.00000000000000000, #306 ) ;
#308 = CALENDAR_DATE ( 2012, 27, 6 ) ;
#309 = DATE_AND_TIME ( #308, #307 ) ;
#310 = APPROVAL_DATE_TIME ( #309, #55 ) ;
#311 = PERSON_AND_ORGANIZATION ( #268, #290 ) ;
#312 = PERSON_AND_ORGANIZATION ( #268, #290 ) ;
#313 = PERSON_AND_ORGANIZATION ( #268, #290 ) ;
#314 = COORDINATED_UNIVERSAL_TIME_OFFSET ( 6, 0, .BEHIND. ) ;
#315 = LOCAL_TIME ( 17, 48, 14.00000000000000000, #314 ) ;
#316 = CALENDAR_DATE ( 2012, 27, 6 ) ;
#317 = DATE_AND_TIME ( #316, #315 ) ;
#318 = PERSON_AND_ORGANIZATION ( #268, #290 ) ;
#319 = APPROVAL_PERSON_ORGANIZATION ( #318, #62, #83 ) ;
#320 = COORDINATED_UNIVERSAL_TIME_OFFSET ( 6, 0, .BEHIND. ) ;
#321 = LOCAL_TIME ( 17, 48, 14.00000000000000000, #320 ) ;
#322 = CALENDAR_DATE ( 2012, 27, 6 ) ;
#323 = DATE_AND_TIME ( #322, #321 ) ;
#324 = APPROVAL_DATE_TIME ( #323, #62 ) ;
#325 = LINE ( 'NONE', #126, #341 ) ;
#326 = VECTOR ( 'NONE', #191, 1000.000000000000000 ) ;
#327 = CIRCLE ( 'NONE', #2, 9.999999999999994700 ) ;
#328 = VECTOR ( 'NONE', #198, 1000.000000000000000 ) ;
#329 = CIRCLE ( 'NONE', #15, 9.999999999999978700 ) ;
#330 = CIRCLE ( 'NONE', #34, 9.999999999999978700 ) ;
#331 = VECTOR ( 'NONE', #106, 1000.000000000000000 ) ;
#332 = VECTOR ( 'NONE', #189, 1000.000000000000000 ) ;
#333 = VECTOR ( 'NONE', #176, 1000.000000000000100 ) ;
#334 = LINE ( 'NONE', #406, #326 ) ;
#335 = EDGE_LOOP ( 'NONE', ( #205, #263 ) ) ;
#336 = VECTOR ( 'NONE', #175, 1000.000000000000000 ) ;
#337 = LINE ( 'NONE', #388, #340 ) ;
#338 = VECTOR ( 'NONE', #80, 1000.000000000000000 ) ;
#339 = LINE ( 'NONE', #383, #349 ) ;
#340 = VECTOR ( 'NONE', #392, 1000.000000000000000 ) ;
#341 = VECTOR ( 'NONE', #151, 1000.000000000000000 ) ;
#342 = CIRCLE ( 'NONE', #32, 9.999999999999994700 ) ;
#343 = LINE ( 'NONE', #115, #333 ) ;
#344 = LINE ( 'NONE', #145, #331 ) ;
#345 = LINE ( 'NONE', #117, #332 ) ;
#346 = EDGE_LOOP ( 'NONE', ( #223, #222, #220, #219 ) ) ;
#347 = CIRCLE ( 'NONE', #33, 9.999999999999978700 ) ;
#348 = VECTOR ( 'NONE', #143, 1000.000000000000000 ) ;
#349 = VECTOR ( 'NONE', #382, 1000.000000000000000 ) ;
#350 = LINE ( 'NONE', #187, #328 ) ;
#351 = EDGE_LOOP ( 'NONE', ( #230, #226, #235, #229 ) ) ;
#352 = EDGE_LOOP ( 'NONE', ( #204, #238, #242, #239, #237 ) ) ;
#353 = ORIENTED_EDGE ( 'NONE', *, *, #24, .T. ) ;
#354 = LINE ( 'NONE', #166, #338 ) ;
#355 = EDGE_LOOP ( 'NONE', ( #213, #246, #262, #257 ) ) ;
#356 = LINE ( 'NONE', #132, #336 ) ;
#357 = CIRCLE ( 'NONE', #6, 9.999999999999994700 ) ;
#358 = ADVANCED_FACE ( 'NONE', ( #370 ), #101, .T. ) ;
#359 = ADVANCED_FACE ( 'NONE', ( #414 ), #102, .T. ) ;
#360 = ADVANCED_FACE ( 'NONE', ( #371 ), #85, .F. ) ;
#361 = ADVANCED_FACE ( 'NONE', ( #274 ), #133, .T. ) ;
#362 = ADVANCED_FACE ( 'NONE', ( #273, #276, #279 ), #148, .T. ) ;
#363 = ADVANCED_FACE ( 'NONE', ( #278, #277, #282 ), #169, .F. ) ;
#364 = ADVANCED_FACE ( 'NONE', ( #272 ), #281, .F. ) ;
#365 = ADVANCED_FACE ( 'NONE', ( #283 ), #285, .F. ) ;
#366 = ADVANCED_FACE ( 'NONE', ( #280 ), #286, .F. ) ;
#367 = ADVANCED_FACE ( 'NONE', ( #284 ), #146, .T. ) ;
#368 = ADVANCED_FACE ( 'NONE', ( #275 ), #287, .F. ) ;
#369 = CIRCLE ( 'NONE', #36, 9.999999999999994700 ) ;
#370 = FACE_OUTER_BOUND ( 'NONE', #346, .T. ) ;
#371 = FACE_OUTER_BOUND ( 'NONE', #203, .T. ) ;
#372 = VECTOR ( 'NONE', #112, 1000.000000000000000 ) ;
#373 = VECTOR ( 'NONE', #109, 1000.000000000000000 ) ;
#374 = LINE ( 'NONE', #129, #373 ) ;
#375 = VECTOR ( 'NONE', #108, 1000.000000000000000 ) ;
#376 = LINE ( 'NONE', #130, #372 ) ;
#377 = CIRCLE ( 'NONE', #1, 9.999999999999978700 ) ;
#378 = VECTOR ( 'NONE', #181, 1000.000000000000000 ) ;
#379 = LINE ( 'NONE', #123, #411 ) ;
#380 = LINE ( 'NONE', #168, #378 ) ;
#381 = LINE ( 'NONE', #94, #375 ) ;
#382 = DIRECTION ( 'NONE',  ( -0.0000000000000000000, 1.000000000000000000, -0.0000000000000000000 ) ) ;
#383 = CARTESIAN_POINT ( 'NONE',  ( 124.9999999999999900, 0.0000000000000000000, -73.09999999999998000 ) ) ;
#384 = VERTEX_POINT ( 'NONE', #163 ) ;
#385 = VERTEX_POINT ( 'NONE', #177 ) ;
#386 = VERTEX_POINT ( 'NONE', #141 ) ;
#387 = VERTEX_POINT ( 'NONE', #188 ) ;
#388 = CARTESIAN_POINT ( 'NONE',  ( 0.0000000000000000000, 0.0000000000000000000, -38.10000000000001600 ) ) ;
#389 = VERTEX_POINT ( 'NONE', #138 ) ;
#390 = VERTEX_POINT ( 'NONE', #127 ) ;
#391 = VERTEX_POINT ( 'NONE', #91 ) ;
#392 = DIRECTION ( 'NONE',  ( 0.0000000000000000000, 0.0000000000000000000, -1.000000000000000000 ) ) ;
#393 = VERTEX_POINT ( 'NONE', #162 ) ;
#394 = VERTEX_POINT ( 'NONE', #79 ) ;
#395 = VERTEX_POINT ( 'NONE', #135 ) ;
#396 = VERTEX_POINT ( 'NONE', #202 ) ;
#397 = VERTEX_POINT ( 'NONE', #195 ) ;
#398 = VERTEX_POINT ( 'NONE', #193 ) ;
#399 = VERTEX_POINT ( 'NONE', #192 ) ;
#400 = VERTEX_POINT ( 'NONE', #66 ) ;
#401 = VERTEX_POINT ( 'NONE', #73 ) ;
#402 = VERTEX_POINT ( 'NONE', #147 ) ;
#403 = DIRECTION ( 'NONE',  ( 0.0000000000000000000, 0.0000000000000000000, 1.000000000000000000 ) ) ;
#404 = CARTESIAN_POINT ( 'NONE',  ( 124.9999999999999700, 0.0000000000000000000, -13.09999999999998700 ) ) ;
#405 = DIRECTION ( 'NONE',  ( 0.0000000000000000000, 1.000000000000000000, 0.0000000000000000000 ) ) ;
#406 = CARTESIAN_POINT ( 'NONE',  ( 131.9000000000000100, 25.39999999999999900, 0.0000000000000000000 ) ) ;
#407 = VERTEX_POINT ( 'NONE', #125 ) ;
#408 = LINE ( 'NONE', #97, #412 ) ;
#409 = VECTOR ( 'NONE', #77, 1000.000000000000000 ) ;
#410 = LINE ( 'NONE', #153, #409 ) ;
#411 = VECTOR ( 'NONE', #96, 1000.000000000000100 ) ;
#412 = VECTOR ( 'NONE', #84, 999.9999999999998900 ) ;
#413 = MANIFOLD_SOLID_BREP ( 'Cut-Extrude1', #225 ) ;
#414 = FACE_OUTER_BOUND ( 'NONE', #234, .T. ) ;
#415 = LINE ( 'NONE', #82, #416 ) ;
#416 = VECTOR ( 'NONE', #113, 999.9999999999998900 ) ;
#417 = PRODUCT_DEFINITION_SHAPE ( 'NONE', 'NONE',  #50 ) ;
#418 = DESIGN_CONTEXT ( 'detailed design', #182, 'design' ) ;
ENDSEC;
END-ISO-10303-21;
