ISO-10303-21;
HEADER;
FILE_DESCRIPTION (( 'STEP AP203' ),
    '1' );
FILE_NAME ('SpindleShaft.STEP',
    '2012-04-06T18:10:13',
    ( '' ),
    ( '' ),
    'SwSTEP 2.0',
    'SolidWorks 2010',
    '' );
FILE_SCHEMA (( 'CONFIG_CONTROL_DESIGN' ));
ENDSEC;

DATA;
#1 = CC_DESIGN_DATE_AND_TIME_ASSIGNMENT ( #121, #82, ( #4 ) ) ;
#2 = CC_DESIGN_PERSON_AND_ORGANIZATION_ASSIGNMENT ( #110, #84, ( #26 ) ) ;
#3 = CC_DESIGN_PERSON_AND_ORGANIZATION_ASSIGNMENT ( #109, #83, ( #26 ) ) ;
#4 = SECURITY_CLASSIFICATION ( '', '', #89 ) ;
#5 = APPROVAL ( #86, 'UNSPECIFIED' ) ;
#6 = CC_DESIGN_APPROVAL ( #5, ( #4 ) ) ;
#7 = CC_DESIGN_PERSON_AND_ORGANIZATION_ASSIGNMENT ( #107, #85, ( #4 ) ) ;
#8 = CC_DESIGN_SECURITY_CLASSIFICATION ( #4, ( #26 ) ) ;
#9 = PRODUCT_RELATED_PRODUCT_CATEGORY ( 'detail', '', ( #171 ) ) ;
#10 = ADVANCED_FACE ( 'NONE', ( #126 ), #134, .T. ) ;
#11 = ADVANCED_FACE ( 'NONE', ( #97 ), #135, .T. ) ;
#12 = ADVANCED_FACE ( 'NONE', ( #103 ), #50, .T. ) ;
#13 = ADVANCED_FACE ( 'NONE', ( #127 ), #61, .F. ) ;
#14 = EDGE_CURVE ( 'NONE', #28, #56, #130, .T. ) ;
#15 = AXIS2_PLACEMENT_3D ( 'NONE', #53, #80, #79 ) ;
#16 = EDGE_CURVE ( 'NONE', #49, #56, #129, .T. ) ;
#17 = EDGE_CURVE ( 'NONE', #31, #28, #136, .T. ) ;
#18 = PRODUCT_DEFINITION ( 'UNKNOWN', '', #26, #90 ) ;
#19 = CC_DESIGN_PERSON_AND_ORGANIZATION_ASSIGNMENT ( #120, #37, ( #18 ) ) ;
#20 = CC_DESIGN_PERSON_AND_ORGANIZATION_ASSIGNMENT ( #124, #71, ( #171 ) ) ;
#21 = APPROVAL ( #87, 'UNSPECIFIED' ) ;
#22 = APPROVAL ( #74, 'UNSPECIFIED' ) ;
#23 = CC_DESIGN_APPROVAL ( #22, ( #18 ) ) ;
#24 = CC_DESIGN_DATE_AND_TIME_ASSIGNMENT ( #111, #27, ( #18 ) ) ;
#25 = CC_DESIGN_APPROVAL ( #21, ( #26 ) ) ;
#26 = PRODUCT_DEFINITION_FORMATION_WITH_SPECIFIED_SOURCE ( 'ANY', '', #171, .NOT_KNOWN. ) ;
#27 = DATE_TIME_ROLE ( 'creation_date' ) ;
#28 = VERTEX_POINT ( 'NONE', #36 ) ;
#29 = DIRECTION ( 'NONE',  ( 1.000000000000000000, 0.0000000000000000000, 0.0000000000000000000 ) ) ;
#30 = DIRECTION ( 'NONE',  ( -1.000000000000000000, 0.0000000000000000000, 0.0000000000000000000 ) ) ;
#31 = VERTEX_POINT ( 'NONE', #68 ) ;
#32 = CARTESIAN_POINT ( 'NONE',  ( 2.500000000000000400, 3.061616997868383600E-016, 0.0000000000000000000 ) ) ;
#33 = DIRECTION ( 'NONE',  ( 0.0000000000000000000, 0.0000000000000000000, 1.000000000000000000 ) ) ;
#34 = DIRECTION ( 'NONE',  ( 0.0000000000000000000, 0.0000000000000000000, 1.000000000000000000 ) ) ;
#35 = DIRECTION ( 'NONE',  ( -0.0000000000000000000, -0.0000000000000000000, -1.000000000000000000 ) ) ;
#36 = CARTESIAN_POINT ( 'NONE',  ( -2.500000000000000400, 0.0000000000000000000, 0.0000000000000000000 ) ) ;
#37 = PERSON_AND_ORGANIZATION_ROLE ( 'creator' ) ;
#38 = CARTESIAN_POINT ( 'NONE',  ( 0.0000000000000000000, 0.0000000000000000000, 115.0000000000000000 ) ) ;
#39 = DIRECTION ( 'NONE',  ( 1.000000000000000000, 0.0000000000000000000, -0.0000000000000000000 ) ) ;
#40 = DIRECTION ( 'NONE',  ( 0.0000000000000000000, 0.0000000000000000000, 1.000000000000000000 ) ) ;
#41 = CARTESIAN_POINT ( 'NONE',  ( 0.0000000000000000000, 0.0000000000000000000, 0.0000000000000000000 ) ) ;
#42 =( LENGTH_UNIT ( ) NAMED_UNIT ( * ) SI_UNIT ( .MILLI., .METRE. ) );
#43 = DIRECTION ( 'NONE',  ( -1.000000000000000000, 0.0000000000000000000, 0.0000000000000000000 ) ) ;
#44 = CARTESIAN_POINT ( 'NONE',  ( -2.500000000000000400, 0.0000000000000000000, 115.0000000000000000 ) ) ;
#45 = CARTESIAN_POINT ( 'NONE',  ( 0.0000000000000000000, 0.0000000000000000000, 115.0000000000000000 ) ) ;
#46 = CARTESIAN_POINT ( 'NONE',  ( 0.0000000000000000000, 0.0000000000000000000, 115.0000000000000000 ) ) ;
#47 = CARTESIAN_POINT ( 'NONE',  ( 0.0000000000000000000, 0.0000000000000000000, 0.0000000000000000000 ) ) ;
#48 = DIRECTION ( 'NONE',  ( 0.0000000000000000000, 0.0000000000000000000, 1.000000000000000000 ) ) ;
#49 = VERTEX_POINT ( 'NONE', #59 ) ;
#50 = PLANE ( 'NONE',  #169 ) ;
#51 = DIRECTION ( 'NONE',  ( -0.0000000000000000000, -0.0000000000000000000, -1.000000000000000000 ) ) ;
#52 = DIRECTION ( 'NONE',  ( 0.0000000000000000000, 0.0000000000000000000, 1.000000000000000000 ) ) ;
#53 = CARTESIAN_POINT ( 'NONE',  ( 0.0000000000000000000, 0.0000000000000000000, 0.0000000000000000000 ) ) ;
#54 =( NAMED_UNIT ( * ) SI_UNIT ( $, .STERADIAN. ) SOLID_ANGLE_UNIT ( ) );
#55 = CARTESIAN_POINT ( 'NONE',  ( 2.500000000000000400, 3.061616997868383600E-016, 115.0000000000000000 ) ) ;
#56 = VERTEX_POINT ( 'NONE', #32 ) ;
#57 = APPROVAL_ROLE ( '' ) ;
#58 = DIRECTION ( 'NONE',  ( -0.0000000000000000000, -0.0000000000000000000, -1.000000000000000000 ) ) ;
#59 = CARTESIAN_POINT ( 'NONE',  ( 2.500000000000000400, 3.061616997868383600E-016, 115.0000000000000000 ) ) ;
#60 = CARTESIAN_POINT ( 'NONE',  ( 0.0000000000000000000, 0.0000000000000000000, 115.0000000000000000 ) ) ;
#61 = PLANE ( 'NONE',  #164 ) ;
#62 = DIRECTION ( 'NONE',  ( 1.000000000000000000, 0.0000000000000000000, 0.0000000000000000000 ) ) ;
#63 = DIRECTION ( 'NONE',  ( 1.000000000000000000, 0.0000000000000000000, -0.0000000000000000000 ) ) ;
#64 = CARTESIAN_POINT ( 'NONE',  ( 0.0000000000000000000, 0.0000000000000000000, 115.0000000000000000 ) ) ;
#65 = APPLICATION_PROTOCOL_DEFINITION ( 'international standard', 'config_control_design', 1994, #69 ) ;
#66 = MECHANICAL_CONTEXT ( 'NONE', #69, 'mechanical' ) ;
#67 =( NAMED_UNIT ( * ) PLANE_ANGLE_UNIT ( ) SI_UNIT ( $, .RADIAN. ) );
#68 = CARTESIAN_POINT ( 'NONE',  ( -2.500000000000000400, 0.0000000000000000000, 115.0000000000000000 ) ) ;
#69 = APPLICATION_CONTEXT ( 'configuration controlled 3d designs of mechanical parts and assemblies' ) ;
#70 = DIRECTION ( 'NONE',  ( -0.0000000000000000000, -0.0000000000000000000, -1.000000000000000000 ) ) ;
#71 = PERSON_AND_ORGANIZATION_ROLE ( 'design_owner' ) ;
#72 = APPLICATION_CONTEXT ( 'configuration controlled 3d designs of mechanical parts and assemblies' ) ;
#73 = APPLICATION_PROTOCOL_DEFINITION ( 'international standard', 'config_control_design', 1994, #72 ) ;
#74 = APPROVAL_STATUS ( 'not_yet_approved' ) ;
#75 = DIRECTION ( 'NONE',  ( 1.000000000000000000, 0.0000000000000000000, 0.0000000000000000000 ) ) ;
#76 = DIRECTION ( 'NONE',  ( 0.0000000000000000000, 0.0000000000000000000, 1.000000000000000000 ) ) ;
#77 = CARTESIAN_POINT ( 'NONE',  ( 0.0000000000000000000, 0.0000000000000000000, 0.0000000000000000000 ) ) ;
#78 = DIRECTION ( 'NONE',  ( 1.000000000000000000, 0.0000000000000000000, 0.0000000000000000000 ) ) ;
#79 = DIRECTION ( 'NONE',  ( 1.000000000000000000, 0.0000000000000000000, 0.0000000000000000000 ) ) ;
#80 = DIRECTION ( 'NONE',  ( 0.0000000000000000000, 0.0000000000000000000, 1.000000000000000000 ) ) ;
#81 = APPROVAL_ROLE ( '' ) ;
#82 = DATE_TIME_ROLE ( 'classification_date' ) ;
#83 = PERSON_AND_ORGANIZATION_ROLE ( 'creator' ) ;
#84 = PERSON_AND_ORGANIZATION_ROLE ( 'design_supplier' ) ;
#85 = PERSON_AND_ORGANIZATION_ROLE ( 'classification_officer' ) ;
#86 = APPROVAL_STATUS ( 'not_yet_approved' ) ;
#87 = APPROVAL_STATUS ( 'not_yet_approved' ) ;
#88 = APPROVAL_ROLE ( '' ) ;
#89 = SECURITY_CLASSIFICATION_LEVEL ( 'unclassified' ) ;
#90 = DESIGN_CONTEXT ( 'detailed design', #72, 'design' ) ;
#91 = PRODUCT_DEFINITION_SHAPE ( 'NONE', 'NONE',  #18 ) ;
#92 = ORIENTED_EDGE ( 'NONE', *, *, #160, .F. ) ;
#93 = ORIENTED_EDGE ( 'NONE', *, *, #17, .T. ) ;
#94 = ORIENTED_EDGE ( 'NONE', *, *, #16, .T. ) ;
#95 = EDGE_LOOP ( 'NONE', ( #98, #92, #93, #99 ) ) ;
#96 = SHAPE_DEFINITION_REPRESENTATION ( #91, #175 ) ;
#97 = FACE_OUTER_BOUND ( 'NONE', #95, .T. ) ;
#98 = ORIENTED_EDGE ( 'NONE', *, *, #16, .F. ) ;
#99 = ORIENTED_EDGE ( 'NONE', *, *, #14, .T. ) ;
#100 = ORIENTED_EDGE ( 'NONE', *, *, #14, .F. ) ;
#101 = ORIENTED_EDGE ( 'NONE', *, *, #163, .F. ) ;
#102 = CIRCLE ( 'NONE', #165, 2.500000000000000400 ) ;
#103 = FACE_OUTER_BOUND ( 'NONE', #104, .T. ) ;
#104 = EDGE_LOOP ( 'NONE', ( #144, #153 ) ) ;
#105 = LOCAL_TIME ( 14, 10, 13.00000000000000000, #148 ) ;
#106 = CALENDAR_DATE ( 2012, 6, 4 ) ;
#107 = PERSON_AND_ORGANIZATION ( #172, #146 ) ;
#108 = APPROVAL_DATE_TIME ( #113, #21 ) ;
#109 = PERSON_AND_ORGANIZATION ( #172, #146 ) ;
#110 = PERSON_AND_ORGANIZATION ( #172, #146 ) ;
#111 = DATE_AND_TIME ( #106, #123 ) ;
#112 = CALENDAR_DATE ( 2012, 6, 4 ) ;
#113 = DATE_AND_TIME ( #112, #118 ) ;
#114 = APPROVAL_PERSON_ORGANIZATION ( #115, #5, #88 ) ;
#115 = PERSON_AND_ORGANIZATION ( #172, #146 ) ;
#116 = CALENDAR_DATE ( 2012, 6, 4 ) ;
#117 = COORDINATED_UNIVERSAL_TIME_OFFSET ( 5, 0, .BEHIND. ) ;
#118 = LOCAL_TIME ( 14, 10, 13.00000000000000000, #139 ) ;
#119 = APPROVAL_DATE_TIME ( #132, #22 ) ;
#120 = PERSON_AND_ORGANIZATION ( #172, #146 ) ;
#121 = DATE_AND_TIME ( #116, #137 ) ;
#122 = CIRCLE ( 'NONE', #166, 2.500000000000000400 ) ;
#123 = LOCAL_TIME ( 14, 10, 13.00000000000000000, #117 ) ;
#124 = PERSON_AND_ORGANIZATION ( #172, #146 ) ;
#125 = COORDINATED_UNIVERSAL_TIME_OFFSET ( 5, 0, .BEHIND. ) ;
#126 = FACE_OUTER_BOUND ( 'NONE', #150, .T. ) ;
#127 = FACE_OUTER_BOUND ( 'NONE', #152, .T. ) ;
#128 = VECTOR ( 'NONE', #58, 1000.000000000000000 ) ;
#129 = LINE ( 'NONE', #55, #133 ) ;
#130 = CIRCLE ( 'NONE', #15, 2.500000000000000400 ) ;
#131 = ORIENTED_EDGE ( 'NONE', *, *, #167, .F. ) ;
#132 = DATE_AND_TIME ( #155, #105 ) ;
#133 = VECTOR ( 'NONE', #51, 1000.000000000000000 ) ;
#134 = CYLINDRICAL_SURFACE ( 'NONE', #162, 2.500000000000000400 ) ;
#135 = CYLINDRICAL_SURFACE ( 'NONE', #161, 2.500000000000000400 ) ;
#136 = LINE ( 'NONE', #44, #128 ) ;
#137 = LOCAL_TIME ( 14, 10, 13.00000000000000000, #125 ) ;
#138 = PERSON_AND_ORGANIZATION ( #172, #146 ) ;
#139 = COORDINATED_UNIVERSAL_TIME_OFFSET ( 5, 0, .BEHIND. ) ;
#140 = APPROVAL_PERSON_ORGANIZATION ( #138, #21, #81 ) ;
#141 = COORDINATED_UNIVERSAL_TIME_OFFSET ( 5, 0, .BEHIND. ) ;
#142 = PERSON_AND_ORGANIZATION ( #172, #146 ) ;
#143 = ORIENTED_EDGE ( 'NONE', *, *, #17, .F. ) ;
#144 = ORIENTED_EDGE ( 'NONE', *, *, #160, .T. ) ;
#145 = APPROVAL_PERSON_ORGANIZATION ( #142, #22, #57 ) ;
#146 = ORGANIZATION ( 'UNSPECIFIED', 'UNSPECIFIED', '' ) ;
#147 =( GEOMETRIC_REPRESENTATION_CONTEXT ( 3 ) GLOBAL_UNCERTAINTY_ASSIGNED_CONTEXT ( ( #174 ) ) GLOBAL_UNIT_ASSIGNED_CONTEXT ( ( #42, #67, #54 ) ) REPRESENTATION_CONTEXT ( 'NONE', 'WORKASPACE' ) );
#148 = COORDINATED_UNIVERSAL_TIME_OFFSET ( 5, 0, .BEHIND. ) ;
#149 = CIRCLE ( 'NONE', #170, 2.500000000000000400 ) ;
#150 = EDGE_LOOP ( 'NONE', ( #101, #94, #151, #143 ) ) ;
#151 = ORIENTED_EDGE ( 'NONE', *, *, #167, .T. ) ;
#152 = EDGE_LOOP ( 'NONE', ( #100, #131 ) ) ;
#153 = ORIENTED_EDGE ( 'NONE', *, *, #163, .T. ) ;
#154 = APPROVAL_DATE_TIME ( #158, #5 ) ;
#155 = CALENDAR_DATE ( 2012, 6, 4 ) ;
#156 = LOCAL_TIME ( 14, 10, 13.00000000000000000, #141 ) ;
#157 = CALENDAR_DATE ( 2012, 6, 4 ) ;
#158 = DATE_AND_TIME ( #157, #156 ) ;
#159 = CLOSED_SHELL ( 'NONE', ( #10, #11, #12, #13 ) ) ;
#160 = EDGE_CURVE ( 'NONE', #31, #49, #122, .T. ) ;
#161 = AXIS2_PLACEMENT_3D ( 'NONE', #60, #35, #43 ) ;
#162 = AXIS2_PLACEMENT_3D ( 'NONE', #64, #70, #30 ) ;
#163 = EDGE_CURVE ( 'NONE', #49, #31, #149, .T. ) ;
#164 = AXIS2_PLACEMENT_3D ( 'NONE', #47, #33, #39 ) ;
#165 = AXIS2_PLACEMENT_3D ( 'NONE', #41, #52, #62 ) ;
#166 = AXIS2_PLACEMENT_3D ( 'NONE', #46, #40, #29 ) ;
#167 = EDGE_CURVE ( 'NONE', #56, #28, #102, .T. ) ;
#168 = AXIS2_PLACEMENT_3D ( 'NONE', #77, #76, #75 ) ;
#169 = AXIS2_PLACEMENT_3D ( 'NONE', #38, #48, #63 ) ;
#170 = AXIS2_PLACEMENT_3D ( 'NONE', #45, #34, #78 ) ;
#171 = PRODUCT ( 'SpindleShaft', 'SpindleShaft', '', ( #66 ) ) ;
#172 = PERSON ( 'UNSPECIFIED', 'UNSPECIFIED', 'UNSPECIFIED', ('UNSPECIFIED'), ('UNSPECIFIED'), ('UNSPECIFIED') ) ;
#173 = MANIFOLD_SOLID_BREP ( 'Boss-Extrude1', #159 ) ;
#174 = UNCERTAINTY_MEASURE_WITH_UNIT (LENGTH_MEASURE( 1.000000000000000100E-005 ), #42, 'distance_accuracy_value', 'NONE');
#175 = ADVANCED_BREP_SHAPE_REPRESENTATION ( 'SpindleShaft', ( #173, #168 ), #147 ) ;
ENDSEC;
END-ISO-10303-21;
