ISO-10303-21;
HEADER;
FILE_DESCRIPTION (( 'STEP AP203' ),
    '1' );
FILE_NAME ('ShortSpacer.STEP',
    '2012-07-03T01:59:31',
    ( '' ),
    ( '' ),
    'SwSTEP 2.0',
    'SolidWorks 2010',
    '' );
FILE_SCHEMA (( 'CONFIG_CONTROL_DESIGN' ));
ENDSEC;

DATA;
#1 = MANIFOLD_SOLID_BREP ( 'Boss-Extrude1', #24 ) ;
#2 = ADVANCED_BREP_SHAPE_REPRESENTATION ( 'ShortSpacer', ( #1, #285 ), #219 ) ;
#3 = ADVANCED_FACE ( 'NONE', ( #90 ), #17, .F. ) ;
#4 = ADVANCED_FACE ( 'NONE', ( #35, #73 ), #168, .T. ) ;
#5 = ADVANCED_FACE ( 'NONE', ( #79, #84 ), #175, .F. ) ;
#6 = ADVANCED_FACE ( 'NONE', ( #72 ), #172, .F. ) ;
#7 = ADVANCED_FACE ( 'NONE', ( #83 ), #163, .F. ) ;
#8 = ADVANCED_FACE ( 'NONE', ( #70 ), #162, .F. ) ;
#9 = ORIENTED_EDGE ( 'NONE', *, *, #300, .F. ) ;
#10 = ORIENTED_EDGE ( 'NONE', *, *, #286, .T. ) ;
#11 = ORIENTED_EDGE ( 'NONE', *, *, #292, .F. ) ;
#12 = ORIENTED_EDGE ( 'NONE', *, *, #276, .T. ) ;
#13 = ORIENTED_EDGE ( 'NONE', *, *, #288, .F. ) ;
#14 = ORIENTED_EDGE ( 'NONE', *, *, #294, .T. ) ;
#15 = ORIENTED_EDGE ( 'NONE', *, *, #266, .T. ) ;
#16 = ORIENTED_EDGE ( 'NONE', *, *, #265, .T. ) ;
#17 = CYLINDRICAL_SURFACE ( 'NONE', #273, 5.250000000000000000 ) ;
#18 = ORIENTED_EDGE ( 'NONE', *, *, #270, .F. ) ;
#19 = COORDINATED_UNIVERSAL_TIME_OFFSET ( 6, 0, .BEHIND. ) ;
#20 = LOCAL_TIME ( 20, 59, 31.00000000000000000, #19 ) ;
#21 = CALENDAR_DATE ( 2012, 2, 7 ) ;
#22 = DATE_AND_TIME ( #21, #20 ) ;
#23 = APPROVAL_DATE_TIME ( #22, #98 ) ;
#24 = CLOSED_SHELL ( 'NONE', ( #3, #4, #5, #6, #7, #8, #226, #227 ) ) ;
#25 = ORIENTED_EDGE ( 'NONE', *, *, #292, .T. ) ;
#26 = VECTOR ( 'NONE', #111, 1000.000000000000000 ) ;
#27 = EDGE_LOOP ( 'NONE', ( #37, #32, #64, #10 ) ) ;
#28 = ORIENTED_EDGE ( 'NONE', *, *, #271, .T. ) ;
#29 = EDGE_LOOP ( 'NONE', ( #82, #57 ) ) ;
#30 = EDGE_LOOP ( 'NONE', ( #54, #59, #61, #62 ) ) ;
#31 = LINE ( 'NONE', #121, #87 ) ;
#32 = ORIENTED_EDGE ( 'NONE', *, *, #294, .F. ) ;
#33 = LINE ( 'NONE', #127, #71 ) ;
#34 = EDGE_LOOP ( 'NONE', ( #46, #88, #50, #49 ) ) ;
#35 = FACE_OUTER_BOUND ( 'NONE', #34, .T. ) ;
#36 = FACE_OUTER_BOUND ( 'NONE', #42, .T. ) ;
#37 = ORIENTED_EDGE ( 'NONE', *, *, #290, .T. ) ;
#38 = LINE ( 'NONE', #113, #81 ) ;
#39 = FACE_OUTER_BOUND ( 'NONE', #45, .T. ) ;
#40 = VECTOR ( 'NONE', #194, 1000.000000000000000 ) ;
#41 = ORIENTED_EDGE ( 'NONE', *, *, #276, .F. ) ;
#42 = EDGE_LOOP ( 'NONE', ( #16, #13, #18, #14 ) ) ;
#43 = ORIENTED_EDGE ( 'NONE', *, *, #286, .F. ) ;
#44 = ORIENTED_EDGE ( 'NONE', *, *, #310, .T. ) ;
#45 = EDGE_LOOP ( 'NONE', ( #11, #15, #12, #9 ) ) ;
#46 = ORIENTED_EDGE ( 'NONE', *, *, #272, .T. ) ;
#47 = EDGE_LOOP ( 'NONE', ( #52, #53 ) ) ;
#48 = EDGE_LOOP ( 'NONE', ( #51, #25, #68, #41 ) ) ;
#49 = ORIENTED_EDGE ( 'NONE', *, *, #270, .T. ) ;
#50 = ORIENTED_EDGE ( 'NONE', *, *, #284, .T. ) ;
#51 = ORIENTED_EDGE ( 'NONE', *, *, #282, .T. ) ;
#52 = ORIENTED_EDGE ( 'NONE', *, *, #282, .F. ) ;
#53 = ORIENTED_EDGE ( 'NONE', *, *, #266, .F. ) ;
#54 = ORIENTED_EDGE ( 'NONE', *, *, #279, .T. ) ;
#55 = ORIENTED_EDGE ( 'NONE', *, *, #271, .F. ) ;
#56 = ORIENTED_EDGE ( 'NONE', *, *, #279, .F. ) ;
#57 = ORIENTED_EDGE ( 'NONE', *, *, #300, .T. ) ;
#58 = ORIENTED_EDGE ( 'NONE', *, *, #290, .F. ) ;
#59 = ORIENTED_EDGE ( 'NONE', *, *, #310, .F. ) ;
#60 = ORIENTED_EDGE ( 'NONE', *, *, #265, .F. ) ;
#61 = ORIENTED_EDGE ( 'NONE', *, *, #272, .F. ) ;
#62 = ORIENTED_EDGE ( 'NONE', *, *, #288, .T. ) ;
#63 = CIRCLE ( 'NONE', #268, 5.250000000000000000 ) ;
#64 = ORIENTED_EDGE ( 'NONE', *, *, #284, .F. ) ;
#65 = ORIENTED_EDGE ( 'NONE', *, *, #291, .F. ) ;
#66 = LINE ( 'NONE', #115, #40 ) ;
#67 = EDGE_LOOP ( 'NONE', ( #56, #60, #58, #55 ) ) ;
#68 = ORIENTED_EDGE ( 'NONE', *, *, #309, .F. ) ;
#69 = LINE ( 'NONE', #108, #259 ) ;
#70 = FACE_OUTER_BOUND ( 'NONE', #27, .T. ) ;
#71 = VECTOR ( 'NONE', #119, 1000.000000000000000 ) ;
#72 = FACE_OUTER_BOUND ( 'NONE', #30, .T. ) ;
#73 = FACE_BOUND ( 'NONE', #47, .T. ) ;
#74 = EDGE_LOOP ( 'NONE', ( #28, #43, #65, #44 ) ) ;
#75 = VECTOR ( 'NONE', #125, 1000.000000000000000 ) ;
#76 = CYLINDRICAL_SURFACE ( 'NONE', #267, 5.250000000000000000 ) ;
#77 = LINE ( 'NONE', #120, #85 ) ;
#78 = LINE ( 'NONE', #126, #75 ) ;
#79 = FACE_OUTER_BOUND ( 'NONE', #67, .T. ) ;
#80 = LINE ( 'NONE', #114, #86 ) ;
#81 = VECTOR ( 'NONE', #116, 1000.000000000000000 ) ;
#82 = ORIENTED_EDGE ( 'NONE', *, *, #309, .T. ) ;
#83 = FACE_OUTER_BOUND ( 'NONE', #74, .T. ) ;
#84 = FACE_BOUND ( 'NONE', #29, .T. ) ;
#85 = VECTOR ( 'NONE', #176, 1000.000000000000000 ) ;
#86 = VECTOR ( 'NONE', #123, 1000.000000000000000 ) ;
#87 = VECTOR ( 'NONE', #179, 1000.000000000000000 ) ;
#88 = ORIENTED_EDGE ( 'NONE', *, *, #291, .T. ) ;
#89 = CIRCLE ( 'NONE', #303, 5.250000000000000000 ) ;
#90 = FACE_OUTER_BOUND ( 'NONE', #48, .T. ) ;
#91 = LINE ( 'NONE', #132, #26 ) ;
#92 = APPROVAL_DATE_TIME ( #93, #297 ) ;
#93 = DATE_AND_TIME ( #223, #209 ) ;
#94 = PERSON_AND_ORGANIZATION ( #304, #211 ) ;
#95 = PERSON_AND_ORGANIZATION ( #304, #211 ) ;
#96 = PERSON_AND_ORGANIZATION ( #304, #211 ) ;
#97 = UNCERTAINTY_MEASURE_WITH_UNIT (LENGTH_MEASURE( 1.000000000000000100E-005 ), #196, 'distance_accuracy_value', 'NONE');
#98 = APPROVAL ( #240, 'UNSPECIFIED' ) ;
#99 = CC_DESIGN_APPROVAL ( #98, ( #101 ) ) ;
#100 = CC_DESIGN_DATE_AND_TIME_ASSIGNMENT ( #107, #238, ( #101 ) ) ;
#101 = SECURITY_CLASSIFICATION ( '', '', #231 ) ;
#102 = CC_DESIGN_PERSON_AND_ORGANIZATION_ASSIGNMENT ( #96, #245, ( #269 ) ) ;
#103 = CC_DESIGN_PERSON_AND_ORGANIZATION_ASSIGNMENT ( #94, #243, ( #101 ) ) ;
#104 = PRODUCT_RELATED_PRODUCT_CATEGORY ( 'detail', '', ( #305 ) ) ;
#105 = CC_DESIGN_SECURITY_CLASSIFICATION ( #101, ( #269 ) ) ;
#106 = PERSON_AND_ORGANIZATION ( #304, #211 ) ;
#107 = DATE_AND_TIME ( #308, #307 ) ;
#108 = CARTESIAN_POINT ( 'NONE',  ( 25.40000000000000600, 30.00000000000000000, 25.40000000000000600 ) ) ;
#109 = DIRECTION ( 'NONE',  ( -0.0000000000000000000, -1.000000000000000000, -0.0000000000000000000 ) ) ;
#110 = CARTESIAN_POINT ( 'NONE',  ( 0.0000000000000000000, 0.0000000000000000000, 0.0000000000000000000 ) ) ;
#111 = DIRECTION ( 'NONE',  ( -1.365923996832131600E-016, -0.0000000000000000000, -1.000000000000000000 ) ) ;
#112 = DIRECTION ( 'NONE',  ( 0.0000000000000000000, 1.000000000000000000, 0.0000000000000000000 ) ) ;
#113 = CARTESIAN_POINT ( 'NONE',  ( -25.39999999999999900, 0.0000000000000000000, -25.39999999999999100 ) ) ;
#114 = CARTESIAN_POINT ( 'NONE',  ( 25.39999999999999900, 30.00000000000000000, -25.39999999999999100 ) ) ;
#115 = CARTESIAN_POINT ( 'NONE',  ( -25.39999999999999900, 30.00000000000000000, -25.39999999999999100 ) ) ;
#116 = DIRECTION ( 'NONE',  ( -1.000000000000000000, -0.0000000000000000000, -0.0000000000000000000 ) ) ;
#117 = DIRECTION ( 'NONE',  ( 0.0000000000000000000, 0.0000000000000000000, 1.000000000000000000 ) ) ;
#118 = VERTEX_POINT ( 'NONE', #158 ) ;
#119 = DIRECTION ( 'NONE',  ( 1.000000000000000000, 0.0000000000000000000, 0.0000000000000000000 ) ) ;
#120 = CARTESIAN_POINT ( 'NONE',  ( -25.39999999999999900, 30.00000000000000000, -25.39999999999999100 ) ) ;
#121 = CARTESIAN_POINT ( 'NONE',  ( 0.0000000000000000000, 30.00000000000000000, -5.250000000000000000 ) ) ;
#122 = CARTESIAN_POINT ( 'NONE',  ( 25.40000000000000600, 30.00000000000000000, 25.40000000000000600 ) ) ;
#123 = DIRECTION ( 'NONE',  ( -1.365923996832131600E-016, -0.0000000000000000000, -1.000000000000000000 ) ) ;
#124 = DIRECTION ( 'NONE',  ( 0.0000000000000000000, 0.0000000000000000000, 1.000000000000000000 ) ) ;
#125 = DIRECTION ( 'NONE',  ( 1.000000000000000000, 0.0000000000000000000, 0.0000000000000000000 ) ) ;
#126 = CARTESIAN_POINT ( 'NONE',  ( -25.39999999999999100, 0.0000000000000000000, 25.40000000000000600 ) ) ;
#127 = CARTESIAN_POINT ( 'NONE',  ( -25.39999999999999100, 30.00000000000000000, 25.40000000000000600 ) ) ;
#128 = CARTESIAN_POINT ( 'NONE',  ( 0.0000000000000000000, 30.00000000000000000, 0.0000000000000000000 ) ) ;
#129 = DIRECTION ( 'NONE',  ( 0.0000000000000000000, 0.0000000000000000000, -1.000000000000000000 ) ) ;
#130 = PLANE ( 'NONE',  #287 ) ;
#131 = VERTEX_POINT ( 'NONE', #142 ) ;
#132 = CARTESIAN_POINT ( 'NONE',  ( 25.39999999999999900, 0.0000000000000000000, -25.39999999999999100 ) ) ;
#133 = DIRECTION ( 'NONE',  ( 1.365923996832131600E-016, 0.0000000000000000000, 1.000000000000000000 ) ) ;
#134 = DIRECTION ( 'NONE',  ( 0.0000000000000000000, 1.000000000000000000, 0.0000000000000000000 ) ) ;
#135 = DIRECTION ( 'NONE',  ( -0.0000000000000000000, -1.000000000000000000, -0.0000000000000000000 ) ) ;
#136 = CARTESIAN_POINT ( 'NONE',  ( 0.0000000000000000000, 30.00000000000000000, 0.0000000000000000000 ) ) ;
#137 = VERTEX_POINT ( 'NONE', #154 ) ;
#138 = DIRECTION ( 'NONE',  ( -1.000000000000000000, 0.0000000000000000000, -0.0000000000000000000 ) ) ;
#139 = CARTESIAN_POINT ( 'NONE',  ( 0.0000000000000000000, 30.00000000000000000, 0.0000000000000000000 ) ) ;
#140 = DIRECTION ( 'NONE',  ( 0.0000000000000000000, 0.0000000000000000000, -1.000000000000000000 ) ) ;
#141 = CARTESIAN_POINT ( 'NONE',  ( 0.0000000000000000000, 30.00000000000000000, -5.250000000000000000 ) ) ;
#142 = CARTESIAN_POINT ( 'NONE',  ( 25.40000000000000600, 0.0000000000000000000, 25.40000000000000600 ) ) ;
#143 = CARTESIAN_POINT ( 'NONE',  ( 6.429395695523604200E-016, 30.00000000000000000, 5.250000000000000000 ) ) ;
#144 = CARTESIAN_POINT ( 'NONE',  ( -25.39999999999999100, 30.00000000000000000, 25.40000000000000600 ) ) ;
#145 = CARTESIAN_POINT ( 'NONE',  ( 25.39999999999999900, 0.0000000000000000000, -25.39999999999999100 ) ) ;
#146 = VERTEX_POINT ( 'NONE', #143 ) ;
#147 = CARTESIAN_POINT ( 'NONE',  ( 25.40000000000000600, 30.00000000000000000, 25.40000000000000600 ) ) ;
#148 = CARTESIAN_POINT ( 'NONE',  ( 6.429395695523604200E-016, 0.0000000000000000000, 5.250000000000000000 ) ) ;
#149 = CARTESIAN_POINT ( 'NONE',  ( 0.0000000000000000000, 0.0000000000000000000, -5.250000000000000000 ) ) ;
#150 = CARTESIAN_POINT ( 'NONE',  ( -25.39999999999999900, 30.00000000000000000, -25.39999999999999100 ) ) ;
#151 = DIRECTION ( 'NONE',  ( 0.0000000000000000000, 0.0000000000000000000, 1.000000000000000000 ) ) ;
#152 = DIRECTION ( 'NONE',  ( 1.000000000000000000, 0.0000000000000000000, -0.0000000000000000000 ) ) ;
#153 = CARTESIAN_POINT ( 'NONE',  ( -25.39999999999999100, 0.0000000000000000000, 25.40000000000000600 ) ) ;
#154 = CARTESIAN_POINT ( 'NONE',  ( 25.39999999999999900, 30.00000000000000000, -25.39999999999999100 ) ) ;
#155 = VERTEX_POINT ( 'NONE', #141 ) ;
#156 = DIRECTION ( 'NONE',  ( -1.365923996832131600E-016, 0.0000000000000000000, -1.000000000000000000 ) ) ;
#157 = DIRECTION ( 'NONE',  ( 1.000000000000000000, 0.0000000000000000000, -1.365923996832131600E-016 ) ) ;
#158 = CARTESIAN_POINT ( 'NONE',  ( -25.39999999999999900, 0.0000000000000000000, -25.39999999999999100 ) ) ;
#159 = DIRECTION ( 'NONE',  ( 0.0000000000000000000, 1.000000000000000000, 0.0000000000000000000 ) ) ;
#160 = DIRECTION ( 'NONE',  ( 0.0000000000000000000, -0.0000000000000000000, 1.000000000000000000 ) ) ;
#161 = CARTESIAN_POINT ( 'NONE',  ( -25.39999999999999900, 30.00000000000000000, -25.39999999999999100 ) ) ;
#162 = PLANE ( 'NONE',  #281 ) ;
#163 = PLANE ( 'NONE',  #280 ) ;
#164 = VERTEX_POINT ( 'NONE', #145 ) ;
#165 = CARTESIAN_POINT ( 'NONE',  ( -25.39999999999999100, 30.00000000000000000, 25.40000000000000600 ) ) ;
#166 = DIRECTION ( 'NONE',  ( 1.365923996832131600E-016, 0.0000000000000000000, 1.000000000000000000 ) ) ;
#167 = DIRECTION ( 'NONE',  ( -1.000000000000000000, 0.0000000000000000000, 1.365923996832131600E-016 ) ) ;
#168 = PLANE ( 'NONE',  #301 ) ;
#169 = CARTESIAN_POINT ( 'NONE',  ( -25.39999999999999900, 30.00000000000000000, -25.39999999999999100 ) ) ;
#170 = CARTESIAN_POINT ( 'NONE',  ( 25.40000000000000600, 0.0000000000000000000, 25.40000000000000600 ) ) ;
#171 = CARTESIAN_POINT ( 'NONE',  ( 25.39999999999999900, 30.00000000000000000, -25.39999999999999100 ) ) ;
#172 = PLANE ( 'NONE',  #289 ) ;
#173 = DIRECTION ( 'NONE',  ( 0.0000000000000000000, 1.000000000000000000, 0.0000000000000000000 ) ) ;
#174 = DIRECTION ( 'NONE',  ( 0.0000000000000000000, -0.0000000000000000000, 1.000000000000000000 ) ) ;
#175 = PLANE ( 'NONE',  #295 ) ;
#176 = DIRECTION ( 'NONE',  ( 1.365923996832131600E-016, 0.0000000000000000000, 1.000000000000000000 ) ) ;
#177 = DIRECTION ( 'NONE',  ( 0.0000000000000000000, 0.0000000000000000000, 1.000000000000000000 ) ) ;
#178 = CARTESIAN_POINT ( 'NONE',  ( -25.39999999999999100, 30.00000000000000000, 25.40000000000000600 ) ) ;
#179 = DIRECTION ( 'NONE',  ( -0.0000000000000000000, -1.000000000000000000, -0.0000000000000000000 ) ) ;
#180 =( NAMED_UNIT ( * ) SI_UNIT ( $, .STERADIAN. ) SOLID_ANGLE_UNIT ( ) );
#181 =( NAMED_UNIT ( * ) PLANE_ANGLE_UNIT ( ) SI_UNIT ( $, .RADIAN. ) );
#182 = CARTESIAN_POINT ( 'NONE',  ( -25.39999999999999900, 0.0000000000000000000, -25.39999999999999100 ) ) ;
#183 = VERTEX_POINT ( 'NONE', #153 ) ;
#184 = VERTEX_POINT ( 'NONE', #149 ) ;
#185 = CARTESIAN_POINT ( 'NONE',  ( -25.39999999999999900, 30.00000000000000000, -25.39999999999999100 ) ) ;
#186 = DIRECTION ( 'NONE',  ( 0.0000000000000000000, 1.000000000000000000, 0.0000000000000000000 ) ) ;
#187 = VERTEX_POINT ( 'NONE', #165 ) ;
#188 = DIRECTION ( 'NONE',  ( -0.0000000000000000000, -1.000000000000000000, -0.0000000000000000000 ) ) ;
#189 = DIRECTION ( 'NONE',  ( 0.0000000000000000000, 1.000000000000000000, 0.0000000000000000000 ) ) ;
#190 = DIRECTION ( 'NONE',  ( -0.0000000000000000000, -1.000000000000000000, -0.0000000000000000000 ) ) ;
#191 = CARTESIAN_POINT ( 'NONE',  ( 25.39999999999999900, 30.00000000000000000, -25.39999999999999100 ) ) ;
#192 = VERTEX_POINT ( 'NONE', #150 ) ;
#193 = DIRECTION ( 'NONE',  ( -0.0000000000000000000, -1.000000000000000000, -0.0000000000000000000 ) ) ;
#194 = DIRECTION ( 'NONE',  ( -0.0000000000000000000, -1.000000000000000000, -0.0000000000000000000 ) ) ;
#195 = VERTEX_POINT ( 'NONE', #148 ) ;
#196 =( LENGTH_UNIT ( ) NAMED_UNIT ( * ) SI_UNIT ( .MILLI., .METRE. ) );
#197 = DIRECTION ( 'NONE',  ( -0.0000000000000000000, -1.000000000000000000, -0.0000000000000000000 ) ) ;
#198 = DIRECTION ( 'NONE',  ( 0.0000000000000000000, 0.0000000000000000000, 1.000000000000000000 ) ) ;
#199 = CARTESIAN_POINT ( 'NONE',  ( 6.429395695523604200E-016, 30.00000000000000000, 5.250000000000000000 ) ) ;
#200 = DIRECTION ( 'NONE',  ( 0.0000000000000000000, 0.0000000000000000000, -1.000000000000000000 ) ) ;
#201 = VERTEX_POINT ( 'NONE', #147 ) ;
#202 = CARTESIAN_POINT ( 'NONE',  ( 0.0000000000000000000, 0.0000000000000000000, 0.0000000000000000000 ) ) ;
#203 = DIRECTION ( 'NONE',  ( -1.000000000000000000, -0.0000000000000000000, -0.0000000000000000000 ) ) ;
#204 = CARTESIAN_POINT ( 'NONE',  ( 0.0000000000000000000, 30.00000000000000000, 0.0000000000000000000 ) ) ;
#205 = PERSON_AND_ORGANIZATION ( #304, #211 ) ;
#206 = COORDINATED_UNIVERSAL_TIME_OFFSET ( 6, 0, .BEHIND. ) ;
#207 = COORDINATED_UNIVERSAL_TIME_OFFSET ( 6, 0, .BEHIND. ) ;
#208 = COORDINATED_UNIVERSAL_TIME_OFFSET ( 6, 0, .BEHIND. ) ;
#209 = LOCAL_TIME ( 20, 59, 31.00000000000000000, #207 ) ;
#210 = LOCAL_TIME ( 20, 59, 31.00000000000000000, #208 ) ;
#211 = ORGANIZATION ( 'UNSPECIFIED', 'UNSPECIFIED', '' ) ;
#212 = APPROVAL_PERSON_ORGANIZATION ( #205, #297, #248 ) ;
#213 = PERSON_AND_ORGANIZATION ( #304, #211 ) ;
#214 = APPROVAL_DATE_TIME ( #215, #275 ) ;
#215 = DATE_AND_TIME ( #216, #210 ) ;
#216 = CALENDAR_DATE ( 2012, 2, 7 ) ;
#217 = PERSON_AND_ORGANIZATION ( #304, #211 ) ;
#218 = PERSON_AND_ORGANIZATION ( #304, #211 ) ;
#219 =( GEOMETRIC_REPRESENTATION_CONTEXT ( 3 ) GLOBAL_UNCERTAINTY_ASSIGNED_CONTEXT ( ( #97 ) ) GLOBAL_UNIT_ASSIGNED_CONTEXT ( ( #196, #181, #180 ) ) REPRESENTATION_CONTEXT ( 'NONE', 'WORKASPACE' ) );
#220 = APPROVAL_PERSON_ORGANIZATION ( #217, #275, #239 ) ;
#221 = DATE_AND_TIME ( #222, #225 ) ;
#222 = CALENDAR_DATE ( 2012, 2, 7 ) ;
#223 = CALENDAR_DATE ( 2012, 2, 7 ) ;
#224 = SHAPE_DEFINITION_REPRESENTATION ( #229, #2 ) ;
#225 = LOCAL_TIME ( 20, 59, 31.00000000000000000, #206 ) ;
#226 = ADVANCED_FACE ( 'NONE', ( #36 ), #130, .F. ) ;
#227 = ADVANCED_FACE ( 'NONE', ( #39 ), #76, .F. ) ;
#228 = DESIGN_CONTEXT ( 'detailed design', #250, 'design' ) ;
#229 = PRODUCT_DEFINITION_SHAPE ( 'NONE', 'NONE',  #274 ) ;
#230 = APPLICATION_CONTEXT ( 'configuration controlled 3d designs of mechanical parts and assemblies' ) ;
#231 = SECURITY_CLASSIFICATION_LEVEL ( 'unclassified' ) ;
#232 = PERSON_AND_ORGANIZATION_ROLE ( 'creator' ) ;
#233 = CARTESIAN_POINT ( 'NONE',  ( 0.0000000000000000000, 0.0000000000000000000, 0.0000000000000000000 ) ) ;
#234 = APPROVAL_STATUS ( 'not_yet_approved' ) ;
#235 = APPROVAL_STATUS ( 'not_yet_approved' ) ;
#236 = DATE_TIME_ROLE ( 'creation_date' ) ;
#237 = DIRECTION ( 'NONE',  ( 1.000000000000000000, 0.0000000000000000000, 0.0000000000000000000 ) ) ;
#238 = DATE_TIME_ROLE ( 'classification_date' ) ;
#239 = APPROVAL_ROLE ( '' ) ;
#240 = APPROVAL_STATUS ( 'not_yet_approved' ) ;
#241 = PERSON_AND_ORGANIZATION_ROLE ( 'creator' ) ;
#242 = PERSON_AND_ORGANIZATION_ROLE ( 'design_owner' ) ;
#243 = PERSON_AND_ORGANIZATION_ROLE ( 'classification_officer' ) ;
#244 = APPLICATION_PROTOCOL_DEFINITION ( 'international standard', 'config_control_design', 1994, #250 ) ;
#245 = PERSON_AND_ORGANIZATION_ROLE ( 'design_supplier' ) ;
#246 = APPROVAL_ROLE ( '' ) ;
#247 = DIRECTION ( 'NONE',  ( 0.0000000000000000000, 0.0000000000000000000, 1.000000000000000000 ) ) ;
#248 = APPROVAL_ROLE ( '' ) ;
#249 = APPLICATION_PROTOCOL_DEFINITION ( 'international standard', 'config_control_design', 1994, #230 ) ;
#250 = APPLICATION_CONTEXT ( 'configuration controlled 3d designs of mechanical parts and assemblies' ) ;
#251 = MECHANICAL_CONTEXT ( 'NONE', #230, 'mechanical' ) ;
#252 = CIRCLE ( 'NONE', #296, 5.250000000000000000 ) ;
#253 = LINE ( 'NONE', #191, #256 ) ;
#254 = LINE ( 'NONE', #185, #260 ) ;
#255 = LINE ( 'NONE', #182, #258 ) ;
#256 = VECTOR ( 'NONE', #188, 1000.000000000000000 ) ;
#257 = VECTOR ( 'NONE', #197, 1000.000000000000000 ) ;
#258 = VECTOR ( 'NONE', #133, 1000.000000000000000 ) ;
#259 = VECTOR ( 'NONE', #109, 1000.000000000000000 ) ;
#260 = VECTOR ( 'NONE', #203, 1000.000000000000000 ) ;
#261 = VECTOR ( 'NONE', #190, 1000.000000000000000 ) ;
#262 = LINE ( 'NONE', #199, #261 ) ;
#263 = LINE ( 'NONE', #178, #257 ) ;
#264 = CIRCLE ( 'NONE', #278, 5.250000000000000000 ) ;
#265 = EDGE_CURVE ( 'NONE', #183, #131, #78, .T. ) ;
#266 = EDGE_CURVE ( 'NONE', #146, #155, #89, .T. ) ;
#267 = AXIS2_PLACEMENT_3D ( 'NONE', #139, #135, #129 ) ;
#268 = AXIS2_PLACEMENT_3D ( 'NONE', #128, #186, #117 ) ;
#269 = PRODUCT_DEFINITION_FORMATION_WITH_SPECIFIED_SOURCE ( 'ANY', '', #305, .NOT_KNOWN. ) ;
#270 = EDGE_CURVE ( 'NONE', #187, #201, #33, .T. ) ;
#271 = EDGE_CURVE ( 'NONE', #164, #118, #38, .T. ) ;
#272 = EDGE_CURVE ( 'NONE', #201, #137, #80, .T. ) ;
#273 = AXIS2_PLACEMENT_3D ( 'NONE', #204, #193, #200 ) ;
#274 = PRODUCT_DEFINITION ( 'UNKNOWN', '', #269, #228 ) ;
#275 = APPROVAL ( #235, 'UNSPECIFIED' ) ;
#276 = EDGE_CURVE ( 'NONE', #155, #184, #31, .T. ) ;
#277 = CC_DESIGN_PERSON_AND_ORGANIZATION_ASSIGNMENT ( #218, #242, ( #305 ) ) ;
#278 = AXIS2_PLACEMENT_3D ( 'NONE', #202, #189, #198 ) ;
#279 = EDGE_CURVE ( 'NONE', #131, #164, #91, .T. ) ;
#280 = AXIS2_PLACEMENT_3D ( 'NONE', #169, #151, #152 ) ;
#281 = AXIS2_PLACEMENT_3D ( 'NONE', #161, #157, #156 ) ;
#282 = EDGE_CURVE ( 'NONE', #155, #146, #63, .T. ) ;
#283 = CC_DESIGN_APPROVAL ( #297, ( #269 ) ) ;
#284 = EDGE_CURVE ( 'NONE', #192, #187, #77, .T. ) ;
#285 = AXIS2_PLACEMENT_3D ( 'NONE', #233, #247, #237 ) ;
#286 = EDGE_CURVE ( 'NONE', #192, #118, #66, .T. ) ;
#287 = AXIS2_PLACEMENT_3D ( 'NONE', #144, #140, #138 ) ;
#288 = EDGE_CURVE ( 'NONE', #201, #131, #69, .T. ) ;
#289 = AXIS2_PLACEMENT_3D ( 'NONE', #171, #167, #166 ) ;
#290 = EDGE_CURVE ( 'NONE', #118, #183, #255, .T. ) ;
#291 = EDGE_CURVE ( 'NONE', #137, #192, #254, .T. ) ;
#292 = EDGE_CURVE ( 'NONE', #146, #195, #262, .T. ) ;
#293 = CC_DESIGN_PERSON_AND_ORGANIZATION_ASSIGNMENT ( #213, #232, ( #274 ) ) ;
#294 = EDGE_CURVE ( 'NONE', #187, #183, #263, .T. ) ;
#295 = AXIS2_PLACEMENT_3D ( 'NONE', #170, #159, #160 ) ;
#296 = AXIS2_PLACEMENT_3D ( 'NONE', #110, #112, #177 ) ;
#297 = APPROVAL ( #234, 'UNSPECIFIED' ) ;
#298 = CC_DESIGN_APPROVAL ( #275, ( #274 ) ) ;
#299 = CC_DESIGN_PERSON_AND_ORGANIZATION_ASSIGNMENT ( #95, #241, ( #269 ) ) ;
#300 = EDGE_CURVE ( 'NONE', #195, #184, #252, .T. ) ;
#301 = AXIS2_PLACEMENT_3D ( 'NONE', #122, #173, #174 ) ;
#302 = CC_DESIGN_DATE_AND_TIME_ASSIGNMENT ( #221, #236, ( #274 ) ) ;
#303 = AXIS2_PLACEMENT_3D ( 'NONE', #136, #134, #124 ) ;
#304 = PERSON ( 'UNSPECIFIED', 'UNSPECIFIED', 'UNSPECIFIED', ('UNSPECIFIED'), ('UNSPECIFIED'), ('UNSPECIFIED') ) ;
#305 = PRODUCT ( 'ShortSpacer', 'ShortSpacer', '', ( #251 ) ) ;
#306 = COORDINATED_UNIVERSAL_TIME_OFFSET ( 6, 0, .BEHIND. ) ;
#307 = LOCAL_TIME ( 20, 59, 31.00000000000000000, #306 ) ;
#308 = CALENDAR_DATE ( 2012, 2, 7 ) ;
#309 = EDGE_CURVE ( 'NONE', #184, #195, #264, .T. ) ;
#310 = EDGE_CURVE ( 'NONE', #137, #164, #253, .T. ) ;
#311 = APPROVAL_PERSON_ORGANIZATION ( #106, #98, #246 ) ;
ENDSEC;
END-ISO-10303-21;
