ISO-10303-21;
HEADER;
FILE_DESCRIPTION (( 'STEP AP203' ),
    '1' );
FILE_NAME ('LongScrew.STEP',
    '2012-07-01T06:17:11',
    ( '' ),
    ( '' ),
    'SwSTEP 2.0',
    'SolidWorks 2010',
    '' );
FILE_SCHEMA (( 'CONFIG_CONTROL_DESIGN' ));
ENDSEC;

DATA;
#1 = AXIS2_PLACEMENT_3D ( 'NONE', #82, #85, #86 ) ;
#2 = AXIS2_PLACEMENT_3D ( 'NONE', #107, #115, #116 ) ;
#3 = AXIS2_PLACEMENT_3D ( 'NONE', #94, #97, #96 ) ;
#4 = PERSON_AND_ORGANIZATION ( #244, #17 ) ;
#5 = CALENDAR_DATE ( 2012, 1, 7 ) ;
#6 = DATE_AND_TIME ( #24, #10 ) ;
#7 = DATE_AND_TIME ( #5, #13 ) ;
#8 = COORDINATED_UNIVERSAL_TIME_OFFSET ( 6, 0, .BEHIND. ) ;
#9 = PERSON_AND_ORGANIZATION ( #244, #17 ) ;
#10 = LOCAL_TIME ( 1, 17, 11.00000000000000000, #36 ) ;
#11 = APPROVAL_DATE_TIME ( #27, #148 ) ;
#12 = PERSON_AND_ORGANIZATION ( #244, #17 ) ;
#13 = LOCAL_TIME ( 1, 17, 11.00000000000000000, #8 ) ;
#14 = APPROVAL_DATE_TIME ( #6, #225 ) ;
#15 = PERSON_AND_ORGANIZATION ( #244, #17 ) ;
#16 = PERSON_AND_ORGANIZATION ( #244, #17 ) ;
#17 = ORGANIZATION ( 'UNSPECIFIED', 'UNSPECIFIED', '' ) ;
#18 = SHAPE_DEFINITION_REPRESENTATION ( #144, #222 ) ;
#19 = COORDINATED_UNIVERSAL_TIME_OFFSET ( 6, 0, .BEHIND. ) ;
#20 = APPROVAL_PERSON_ORGANIZATION ( #4, #225, #136 ) ;
#21 = LOCAL_TIME ( 1, 17, 11.00000000000000000, #19 ) ;
#22 = COORDINATED_UNIVERSAL_TIME_OFFSET ( 6, 0, .BEHIND. ) ;
#23 = APPROVAL_PERSON_ORGANIZATION ( #32, #232, #143 ) ;
#24 = CALENDAR_DATE ( 2012, 1, 7 ) ;
#25 = LOCAL_TIME ( 1, 17, 11.00000000000000000, #30 ) ;
#26 = CALENDAR_DATE ( 2012, 1, 7 ) ;
#27 = DATE_AND_TIME ( #26, #25 ) ;
#28 = PERSON_AND_ORGANIZATION ( #244, #17 ) ;
#29 = APPROVAL_PERSON_ORGANIZATION ( #28, #148, #132 ) ;
#30 = COORDINATED_UNIVERSAL_TIME_OFFSET ( 6, 0, .BEHIND. ) ;
#31 = PERSON_AND_ORGANIZATION ( #244, #17 ) ;
#32 = PERSON_AND_ORGANIZATION ( #244, #17 ) ;
#33 = DATE_AND_TIME ( #34, #21 ) ;
#34 = CALENDAR_DATE ( 2012, 1, 7 ) ;
#35 = LOCAL_TIME ( 1, 17, 11.00000000000000000, #22 ) ;
#36 = COORDINATED_UNIVERSAL_TIME_OFFSET ( 6, 0, .BEHIND. ) ;
#37 = APPROVAL_DATE_TIME ( #38, #232 ) ;
#38 = DATE_AND_TIME ( #40, #35 ) ;
#39 =( GEOMETRIC_REPRESENTATION_CONTEXT ( 3 ) GLOBAL_UNCERTAINTY_ASSIGNED_CONTEXT ( ( #221 ) ) GLOBAL_UNIT_ASSIGNED_CONTEXT ( ( #118, #117, #121 ) ) REPRESENTATION_CONTEXT ( 'NONE', 'WORKASPACE' ) );
#40 = CALENDAR_DATE ( 2012, 1, 7 ) ;
#41 = EDGE_CURVE ( 'NONE', #53, #58, #183, .T. ) ;
#42 = EDGE_CURVE ( 'NONE', #58, #53, #186, .T. ) ;
#43 = EDGE_CURVE ( 'NONE', #67, #70, #164, .T. ) ;
#44 = EDGE_CURVE ( 'NONE', #68, #69, #193, .T. ) ;
#45 = AXIS2_PLACEMENT_3D ( 'NONE', #93, #92, #88 ) ;
#46 = EDGE_CURVE ( 'NONE', #48, #66, #167, .T. ) ;
#47 = CARTESIAN_POINT ( 'NONE',  ( 0.0000000000000000000, 12.00000000000000000, 0.0000000000000000000 ) ) ;
#48 = VERTEX_POINT ( 'NONE', #62 ) ;
#49 = CARTESIAN_POINT ( 'NONE',  ( 0.0000000000000000000, 0.0000000000000000000, 0.0000000000000000000 ) ) ;
#50 = CARTESIAN_POINT ( 'NONE',  ( 0.0000000000000000000, 12.00000000000000000, 0.0000000000000000000 ) ) ;
#51 = CARTESIAN_POINT ( 'NONE',  ( 1.102182119232617700E-015, 12.00000000000000000, 9.000000000000000000 ) ) ;
#52 = DIRECTION ( 'NONE',  ( 0.0000000000000000000, 0.0000000000000000000, 1.000000000000000000 ) ) ;
#53 = VERTEX_POINT ( 'NONE', #63 ) ;
#54 = CARTESIAN_POINT ( 'NONE',  ( 0.0000000000000000000, 56.99999999999999300, 0.0000000000000000000 ) ) ;
#55 = DIRECTION ( 'NONE',  ( 0.0000000000000000000, 0.0000000000000000000, 1.000000000000000000 ) ) ;
#56 = DIRECTION ( 'NONE',  ( 0.0000000000000000000, 1.000000000000000000, 0.0000000000000000000 ) ) ;
#57 = CARTESIAN_POINT ( 'NONE',  ( 0.0000000000000000000, 56.99999999999999300, 0.0000000000000000000 ) ) ;
#58 = VERTEX_POINT ( 'NONE', #74 ) ;
#59 = DIRECTION ( 'NONE',  ( 0.0000000000000000000, 1.000000000000000000, 0.0000000000000000000 ) ) ;
#60 = DIRECTION ( 'NONE',  ( 0.0000000000000000000, 0.0000000000000000000, 1.000000000000000000 ) ) ;
#61 = DIRECTION ( 'NONE',  ( 0.0000000000000000000, 1.000000000000000000, 0.0000000000000000000 ) ) ;
#62 = CARTESIAN_POINT ( 'NONE',  ( 7.347880794884119700E-016, 12.00000000000000000, 6.000000000000000900 ) ) ;
#63 = CARTESIAN_POINT ( 'NONE',  ( 0.0000000000000000000, 56.99999999999999300, -6.000000000000000900 ) ) ;
#64 = DIRECTION ( 'NONE',  ( 0.0000000000000000000, 0.0000000000000000000, 1.000000000000000000 ) ) ;
#65 = DIRECTION ( 'NONE',  ( 0.0000000000000000000, 1.000000000000000000, 0.0000000000000000000 ) ) ;
#66 = VERTEX_POINT ( 'NONE', #75 ) ;
#67 = VERTEX_POINT ( 'NONE', #51 ) ;
#68 = VERTEX_POINT ( 'NONE', #76 ) ;
#69 = VERTEX_POINT ( 'NONE', #73 ) ;
#70 = VERTEX_POINT ( 'NONE', #77 ) ;
#71 = DIRECTION ( 'NONE',  ( 0.0000000000000000000, 1.000000000000000000, 0.0000000000000000000 ) ) ;
#72 = DIRECTION ( 'NONE',  ( 0.0000000000000000000, 0.0000000000000000000, 1.000000000000000000 ) ) ;
#73 = CARTESIAN_POINT ( 'NONE',  ( 0.0000000000000000000, 0.0000000000000000000, -9.000000000000000000 ) ) ;
#74 = CARTESIAN_POINT ( 'NONE',  ( 7.347880794884119700E-016, 56.99999999999999300, 6.000000000000000900 ) ) ;
#75 = CARTESIAN_POINT ( 'NONE',  ( 0.0000000000000000000, 12.00000000000000000, -6.000000000000000900 ) ) ;
#76 = CARTESIAN_POINT ( 'NONE',  ( 1.102182119232617700E-015, 0.0000000000000000000, 9.000000000000000000 ) ) ;
#77 = CARTESIAN_POINT ( 'NONE',  ( 0.0000000000000000000, 12.00000000000000000, -9.000000000000000000 ) ) ;
#78 = CARTESIAN_POINT ( 'NONE',  ( 0.0000000000000000000, 12.00000000000000000, 0.0000000000000000000 ) ) ;
#79 = CARTESIAN_POINT ( 'NONE',  ( 7.347880794884119700E-016, 56.99999999999999300, 6.000000000000000900 ) ) ;
#80 = DIRECTION ( 'NONE',  ( 0.0000000000000000000, 0.0000000000000000000, -1.000000000000000000 ) ) ;
#81 = PLANE ( 'NONE',  #1 ) ;
#82 = CARTESIAN_POINT ( 'NONE',  ( 0.0000000000000000000, 12.00000000000000000, 0.0000000000000000000 ) ) ;
#83 = DIRECTION ( 'NONE',  ( -0.0000000000000000000, -1.000000000000000000, -0.0000000000000000000 ) ) ;
#84 = DIRECTION ( 'NONE',  ( -0.0000000000000000000, -1.000000000000000000, -0.0000000000000000000 ) ) ;
#85 = DIRECTION ( 'NONE',  ( 0.0000000000000000000, 1.000000000000000000, 0.0000000000000000000 ) ) ;
#86 = DIRECTION ( 'NONE',  ( 0.0000000000000000000, -0.0000000000000000000, 1.000000000000000000 ) ) ;
#87 = DIRECTION ( 'NONE',  ( 0.0000000000000000000, 0.0000000000000000000, -1.000000000000000000 ) ) ;
#88 = DIRECTION ( 'NONE',  ( 0.0000000000000000000, 0.0000000000000000000, -1.000000000000000000 ) ) ;
#89 = DIRECTION ( 'NONE',  ( -0.0000000000000000000, -1.000000000000000000, -0.0000000000000000000 ) ) ;
#90 = CARTESIAN_POINT ( 'NONE',  ( 0.0000000000000000000, 56.99999999999999300, 0.0000000000000000000 ) ) ;
#91 = CARTESIAN_POINT ( 'NONE',  ( 0.0000000000000000000, 0.0000000000000000000, 0.0000000000000000000 ) ) ;
#92 = DIRECTION ( 'NONE',  ( -0.0000000000000000000, -1.000000000000000000, -0.0000000000000000000 ) ) ;
#93 = CARTESIAN_POINT ( 'NONE',  ( 0.0000000000000000000, 12.00000000000000000, 0.0000000000000000000 ) ) ;
#94 = CARTESIAN_POINT ( 'NONE',  ( 0.0000000000000000000, 56.99999999999999300, 0.0000000000000000000 ) ) ;
#95 = PLANE ( 'NONE',  #152 ) ;
#96 = DIRECTION ( 'NONE',  ( 0.0000000000000000000, 0.0000000000000000000, -1.000000000000000000 ) ) ;
#97 = DIRECTION ( 'NONE',  ( -0.0000000000000000000, -1.000000000000000000, -0.0000000000000000000 ) ) ;
#98 = DIRECTION ( 'NONE',  ( 0.0000000000000000000, 1.000000000000000000, 0.0000000000000000000 ) ) ;
#99 = DIRECTION ( 'NONE',  ( 0.0000000000000000000, -0.0000000000000000000, 1.000000000000000000 ) ) ;
#100 = CARTESIAN_POINT ( 'NONE',  ( 0.0000000000000000000, 56.99999999999999300, 0.0000000000000000000 ) ) ;
#101 = PLANE ( 'NONE',  #247 ) ;
#102 = DIRECTION ( 'NONE',  ( 0.0000000000000000000, 1.000000000000000000, 0.0000000000000000000 ) ) ;
#103 = DIRECTION ( 'NONE',  ( 0.0000000000000000000, -0.0000000000000000000, 1.000000000000000000 ) ) ;
#104 = CARTESIAN_POINT ( 'NONE',  ( 0.0000000000000000000, 56.99999999999999300, -6.000000000000000900 ) ) ;
#105 = DIRECTION ( 'NONE',  ( -0.0000000000000000000, -1.000000000000000000, -0.0000000000000000000 ) ) ;
#106 = CARTESIAN_POINT ( 'NONE',  ( 0.0000000000000000000, 12.00000000000000000, -9.000000000000000000 ) ) ;
#107 = CARTESIAN_POINT ( 'NONE',  ( 0.0000000000000000000, 12.00000000000000000, 0.0000000000000000000 ) ) ;
#108 = DIRECTION ( 'NONE',  ( -0.0000000000000000000, -1.000000000000000000, -0.0000000000000000000 ) ) ;
#109 = CARTESIAN_POINT ( 'NONE',  ( 0.0000000000000000000, 0.0000000000000000000, 0.0000000000000000000 ) ) ;
#110 = CARTESIAN_POINT ( 'NONE',  ( 0.0000000000000000000, 12.00000000000000000, 0.0000000000000000000 ) ) ;
#111 = DIRECTION ( 'NONE',  ( 0.0000000000000000000, 1.000000000000000000, 0.0000000000000000000 ) ) ;
#112 = DIRECTION ( 'NONE',  ( 0.0000000000000000000, 0.0000000000000000000, 1.000000000000000000 ) ) ;
#113 = CARTESIAN_POINT ( 'NONE',  ( 1.102182119232617700E-015, 12.00000000000000000, 9.000000000000000000 ) ) ;
#114 = DIRECTION ( 'NONE',  ( -0.0000000000000000000, -1.000000000000000000, -0.0000000000000000000 ) ) ;
#115 = DIRECTION ( 'NONE',  ( 0.0000000000000000000, 1.000000000000000000, 0.0000000000000000000 ) ) ;
#116 = DIRECTION ( 'NONE',  ( 0.0000000000000000000, 0.0000000000000000000, 1.000000000000000000 ) ) ;
#117 =( NAMED_UNIT ( * ) PLANE_ANGLE_UNIT ( ) SI_UNIT ( $, .RADIAN. ) );
#118 =( LENGTH_UNIT ( ) NAMED_UNIT ( * ) SI_UNIT ( .MILLI., .METRE. ) );
#119 = DIRECTION ( 'NONE',  ( 0.0000000000000000000, 1.000000000000000000, 0.0000000000000000000 ) ) ;
#120 = DIRECTION ( 'NONE',  ( 0.0000000000000000000, 0.0000000000000000000, 1.000000000000000000 ) ) ;
#121 =( NAMED_UNIT ( * ) SI_UNIT ( $, .STERADIAN. ) SOLID_ANGLE_UNIT ( ) );
#122 = CARTESIAN_POINT ( 'NONE',  ( 0.0000000000000000000, 0.0000000000000000000, 0.0000000000000000000 ) ) ;
#123 = DIRECTION ( 'NONE',  ( 0.0000000000000000000, 0.0000000000000000000, 1.000000000000000000 ) ) ;
#124 = DIRECTION ( 'NONE',  ( 1.000000000000000000, 0.0000000000000000000, 0.0000000000000000000 ) ) ;
#125 = APPLICATION_CONTEXT ( 'configuration controlled 3d designs of mechanical parts and assemblies' ) ;
#126 = APPLICATION_PROTOCOL_DEFINITION ( 'international standard', 'config_control_design', 1994, #125 ) ;
#127 = MECHANICAL_CONTEXT ( 'NONE', #125, 'mechanical' ) ;
#128 = PERSON_AND_ORGANIZATION_ROLE ( 'design_owner' ) ;
#129 = APPLICATION_CONTEXT ( 'configuration controlled 3d designs of mechanical parts and assemblies' ) ;
#130 = APPLICATION_PROTOCOL_DEFINITION ( 'international standard', 'config_control_design', 1994, #129 ) ;
#131 = APPROVAL_STATUS ( 'not_yet_approved' ) ;
#132 = APPROVAL_ROLE ( '' ) ;
#133 = PERSON_AND_ORGANIZATION_ROLE ( 'creator' ) ;
#134 = DATE_TIME_ROLE ( 'creation_date' ) ;
#135 = APPROVAL_STATUS ( 'not_yet_approved' ) ;
#136 = APPROVAL_ROLE ( '' ) ;
#137 = PERSON_AND_ORGANIZATION_ROLE ( 'creator' ) ;
#138 = PERSON_AND_ORGANIZATION_ROLE ( 'design_supplier' ) ;
#139 = SECURITY_CLASSIFICATION_LEVEL ( 'unclassified' ) ;
#140 = PERSON_AND_ORGANIZATION_ROLE ( 'classification_officer' ) ;
#141 = DATE_TIME_ROLE ( 'classification_date' ) ;
#142 = APPROVAL_STATUS ( 'not_yet_approved' ) ;
#143 = APPROVAL_ROLE ( '' ) ;
#144 = PRODUCT_DEFINITION_SHAPE ( 'NONE', 'NONE',  #147 ) ;
#145 = DESIGN_CONTEXT ( 'detailed design', #129, 'design' ) ;
#146 = CC_DESIGN_PERSON_AND_ORGANIZATION_ASSIGNMENT ( #16, #128, ( #243 ) ) ;
#147 = PRODUCT_DEFINITION ( 'UNKNOWN', '', #224, #145 ) ;
#148 = APPROVAL ( #131, 'UNSPECIFIED' ) ;
#149 = CC_DESIGN_PERSON_AND_ORGANIZATION_ASSIGNMENT ( #9, #133, ( #147 ) ) ;
#150 = CC_DESIGN_APPROVAL ( #148, ( #147 ) ) ;
#151 = CC_DESIGN_DATE_AND_TIME_ASSIGNMENT ( #7, #134, ( #147 ) ) ;
#152 = AXIS2_PLACEMENT_3D ( 'NONE', #91, #98, #99 ) ;
#153 = AXIS2_PLACEMENT_3D ( 'NONE', #109, #111, #112 ) ;
#154 = AXIS2_PLACEMENT_3D ( 'NONE', #110, #119, #120 ) ;
#155 = FACE_OUTER_BOUND ( 'NONE', #211, .T. ) ;
#156 = ORIENTED_EDGE ( 'NONE', *, *, #253, .F. ) ;
#157 = EDGE_LOOP ( 'NONE', ( #190, #166, #174, #212 ) ) ;
#158 = ORIENTED_EDGE ( 'NONE', *, *, #44, .F. ) ;
#159 = CYLINDRICAL_SURFACE ( 'NONE', #250, 9.000000000000000000 ) ;
#160 = EDGE_LOOP ( 'NONE', ( #180, #189 ) ) ;
#161 = FACE_OUTER_BOUND ( 'NONE', #157, .T. ) ;
#162 = VECTOR ( 'NONE', #114, 1000.000000000000000 ) ;
#163 = ORIENTED_EDGE ( 'NONE', *, *, #245, .F. ) ;
#164 = CIRCLE ( 'NONE', #251, 9.000000000000000000 ) ;
#165 = CIRCLE ( 'NONE', #153, 9.000000000000000000 ) ;
#166 = ORIENTED_EDGE ( 'NONE', *, *, #253, .T. ) ;
#167 = CIRCLE ( 'NONE', #219, 6.000000000000000900 ) ;
#168 = ORIENTED_EDGE ( 'NONE', *, *, #255, .F. ) ;
#169 = CYLINDRICAL_SURFACE ( 'NONE', #217, 6.000000000000000900 ) ;
#170 = ORIENTED_EDGE ( 'NONE', *, *, #252, .F. ) ;
#171 = VECTOR ( 'NONE', #83, 1000.000000000000000 ) ;
#172 = CYLINDRICAL_SURFACE ( 'NONE', #45, 9.000000000000000000 ) ;
#173 = EDGE_LOOP ( 'NONE', ( #198, #203, #215, #163 ) ) ;
#174 = ORIENTED_EDGE ( 'NONE', *, *, #44, .T. ) ;
#175 = FACE_OUTER_BOUND ( 'NONE', #177, .T. ) ;
#176 = ORIENTED_EDGE ( 'NONE', *, *, #46, .F. ) ;
#177 = EDGE_LOOP ( 'NONE', ( #156, #185, #207, #204 ) ) ;
#178 = VECTOR ( 'NONE', #108, 1000.000000000000000 ) ;
#179 = ORIENTED_EDGE ( 'NONE', *, *, #42, .T. ) ;
#180 = ORIENTED_EDGE ( 'NONE', *, *, #254, .T. ) ;
#181 = ORIENTED_EDGE ( 'NONE', *, *, #255, .T. ) ;
#182 = EDGE_LOOP ( 'NONE', ( #168, #176 ) ) ;
#183 = CIRCLE ( 'NONE', #216, 6.000000000000000900 ) ;
#184 = FACE_OUTER_BOUND ( 'NONE', #173, .T. ) ;
#185 = ORIENTED_EDGE ( 'NONE', *, *, #254, .F. ) ;
#186 = CIRCLE ( 'NONE', #248, 6.000000000000000900 ) ;
#187 = CIRCLE ( 'NONE', #154, 6.000000000000000900 ) ;
#188 = ORIENTED_EDGE ( 'NONE', *, *, #41, .F. ) ;
#189 = ORIENTED_EDGE ( 'NONE', *, *, #43, .T. ) ;
#190 = ORIENTED_EDGE ( 'NONE', *, *, #43, .F. ) ;
#191 = EDGE_LOOP ( 'NONE', ( #214, #188, #206, #181 ) ) ;
#192 = LINE ( 'NONE', #104, #194 ) ;
#193 = CIRCLE ( 'NONE', #218, 9.000000000000000000 ) ;
#194 = VECTOR ( 'NONE', #105, 1000.000000000000000 ) ;
#195 = FACE_OUTER_BOUND ( 'NONE', #208, .T. ) ;
#196 = LINE ( 'NONE', #79, #171 ) ;
#197 = CIRCLE ( 'NONE', #2, 9.000000000000000000 ) ;
#198 = ORIENTED_EDGE ( 'NONE', *, *, #42, .F. ) ;
#199 = ORIENTED_EDGE ( 'NONE', *, *, #41, .T. ) ;
#200 = FACE_BOUND ( 'NONE', #182, .T. ) ;
#201 = CLOSED_SHELL ( 'NONE', ( #238, #237, #236, #239, #240, #241, #242 ) ) ;
#202 = FACE_OUTER_BOUND ( 'NONE', #191, .T. ) ;
#203 = ORIENTED_EDGE ( 'NONE', *, *, #223, .T. ) ;
#204 = ORIENTED_EDGE ( 'NONE', *, *, #252, .T. ) ;
#205 = LINE ( 'NONE', #113, #162 ) ;
#206 = ORIENTED_EDGE ( 'NONE', *, *, #245, .T. ) ;
#207 = ORIENTED_EDGE ( 'NONE', *, *, #246, .T. ) ;
#208 = EDGE_LOOP ( 'NONE', ( #170, #158 ) ) ;
#209 = LINE ( 'NONE', #106, #178 ) ;
#210 = FACE_OUTER_BOUND ( 'NONE', #160, .T. ) ;
#211 = EDGE_LOOP ( 'NONE', ( #199, #179 ) ) ;
#212 = ORIENTED_EDGE ( 'NONE', *, *, #246, .F. ) ;
#213 = CYLINDRICAL_SURFACE ( 'NONE', #3, 6.000000000000000900 ) ;
#214 = ORIENTED_EDGE ( 'NONE', *, *, #223, .F. ) ;
#215 = ORIENTED_EDGE ( 'NONE', *, *, #46, .T. ) ;
#216 = AXIS2_PLACEMENT_3D ( 'NONE', #54, #61, #64 ) ;
#217 = AXIS2_PLACEMENT_3D ( 'NONE', #90, #89, #87 ) ;
#218 = AXIS2_PLACEMENT_3D ( 'NONE', #49, #59, #52 ) ;
#219 = AXIS2_PLACEMENT_3D ( 'NONE', #50, #71, #72 ) ;
#220 = MANIFOLD_SOLID_BREP ( 'Boss-Extrude2', #201 ) ;
#221 = UNCERTAINTY_MEASURE_WITH_UNIT (LENGTH_MEASURE( 1.000000000000000100E-005 ), #118, 'distance_accuracy_value', 'NONE');
#222 = ADVANCED_BREP_SHAPE_REPRESENTATION ( 'LongScrew', ( #220, #249 ), #39 ) ;
#223 = EDGE_CURVE ( 'NONE', #58, #48, #196, .T. ) ;
#224 = PRODUCT_DEFINITION_FORMATION_WITH_SPECIFIED_SOURCE ( 'ANY', '', #243, .NOT_KNOWN. ) ;
#225 = APPROVAL ( #135, 'UNSPECIFIED' ) ;
#226 = CC_DESIGN_APPROVAL ( #225, ( #224 ) ) ;
#227 = CC_DESIGN_PERSON_AND_ORGANIZATION_ASSIGNMENT ( #12, #137, ( #224 ) ) ;
#228 = CC_DESIGN_PERSON_AND_ORGANIZATION_ASSIGNMENT ( #15, #138, ( #224 ) ) ;
#229 = SECURITY_CLASSIFICATION ( '', '', #139 ) ;
#230 = CC_DESIGN_PERSON_AND_ORGANIZATION_ASSIGNMENT ( #31, #140, ( #229 ) ) ;
#231 = CC_DESIGN_DATE_AND_TIME_ASSIGNMENT ( #33, #141, ( #229 ) ) ;
#232 = APPROVAL ( #142, 'UNSPECIFIED' ) ;
#233 = CC_DESIGN_APPROVAL ( #232, ( #229 ) ) ;
#234 = CC_DESIGN_SECURITY_CLASSIFICATION ( #229, ( #224 ) ) ;
#235 = PRODUCT_RELATED_PRODUCT_CATEGORY ( 'detail', '', ( #243 ) ) ;
#236 = ADVANCED_FACE ( 'NONE', ( #210, #200 ), #81, .T. ) ;
#237 = ADVANCED_FACE ( 'NONE', ( #161 ), #159, .T. ) ;
#238 = ADVANCED_FACE ( 'NONE', ( #184 ), #169, .T. ) ;
#239 = ADVANCED_FACE ( 'NONE', ( #175 ), #172, .T. ) ;
#240 = ADVANCED_FACE ( 'NONE', ( #195 ), #95, .F. ) ;
#241 = ADVANCED_FACE ( 'NONE', ( #202 ), #213, .T. ) ;
#242 = ADVANCED_FACE ( 'NONE', ( #155 ), #101, .T. ) ;
#243 = PRODUCT ( 'LongScrew', 'LongScrew', '', ( #127 ) ) ;
#244 = PERSON ( 'UNSPECIFIED', 'UNSPECIFIED', 'UNSPECIFIED', ('UNSPECIFIED'), ('UNSPECIFIED'), ('UNSPECIFIED') ) ;
#245 = EDGE_CURVE ( 'NONE', #53, #66, #192, .T. ) ;
#246 = EDGE_CURVE ( 'NONE', #70, #69, #209, .T. ) ;
#247 = AXIS2_PLACEMENT_3D ( 'NONE', #100, #102, #103 ) ;
#248 = AXIS2_PLACEMENT_3D ( 'NONE', #57, #65, #55 ) ;
#249 = AXIS2_PLACEMENT_3D ( 'NONE', #122, #123, #124 ) ;
#250 = AXIS2_PLACEMENT_3D ( 'NONE', #78, #84, #80 ) ;
#251 = AXIS2_PLACEMENT_3D ( 'NONE', #47, #56, #60 ) ;
#252 = EDGE_CURVE ( 'NONE', #69, #68, #165, .T. ) ;
#253 = EDGE_CURVE ( 'NONE', #67, #68, #205, .T. ) ;
#254 = EDGE_CURVE ( 'NONE', #70, #67, #197, .T. ) ;
#255 = EDGE_CURVE ( 'NONE', #66, #48, #187, .T. ) ;
ENDSEC;
END-ISO-10303-21;
