 0
SECTION
 2
ENTITIES
  0
POLYLINE
 8
Group#1
 66
     1
70
    8
 10
0.0
 20
 0.0
 30
0.0
  0
VERTEX
  8
MY3DLAYER
10
6.53765716243198
20
2.94121237664212
30
0.0
 70
     32
  0
VERTEX
  8
MY3DLAYER
10
7.53765716243198
20
2.94121237664212
30
0.0
 70
     32
  0
VERTEX
  8
MY3DLAYER
10
7.53765716243198
20
2.94121237664212
30
0.0625
 70
     32
  0
VERTEX
  8
MY3DLAYER
10
6.53765716243198
20
2.94121237664212
30
0.0625
 70
     32
  0
VERTEX
  8
MY3DLAYER
10
6.53765716243198
20
2.94121237664212
30
0.0
 70
     32
  0
SEQEND
  0
POLYLINE
 8
Group#1
 66
     1
70
    8
 10
0.0
 20
 0.0
 30
0.0
  0
VERTEX
  8
MY3DLAYER
10
6.81280113324928
20
3.12554938563662
30
0.0
 70
     32
  0
VERTEX
  8
MY3DLAYER
10
6.79494954058925
20
3.1212790592815
30
0.0
 70
     32
  0
VERTEX
  8
MY3DLAYER
10
6.79494954058925
20
3.1212790592815
30
0.0625
 70
     32
  0
VERTEX
  8
MY3DLAYER
10
6.81280113324928
20
3.12554938563662
30
0.0625
 70
     32
  0
VERTEX
  8
MY3DLAYER
10
6.81280113324928
20
3.12554938563662
30
0.0
 70
     32
  0
SEQEND
  0
POLYLINE
 8
Group#1
 66
     1
70
    8
 10
0.0
 20
 0.0
 30
0.0
  0
VERTEX
  8
MY3DLAYER
10
7.35796966243198
20
3.69121237664212
30
0.0
 70
     32
  0
VERTEX
  8
MY3DLAYER
10
7.35557382209293
20
3.67301416253335
30
0.0
 70
     32
  0
VERTEX
  8
MY3DLAYER
10
7.35557382209293
20
3.67301416253335
30
0.0625
 70
     32
  0
VERTEX
  8
MY3DLAYER
10
7.35796966243198
20
3.69121237664212
30
0.0625
 70
     32
  0
VERTEX
  8
MY3DLAYER
10
7.35796966243198
20
3.69121237664212
30
0.0
 70
     32
  0
SEQEND
  0
POLYLINE
 8
Group#1
 66
     1
70
    8
 10
0.0
 20
 0.0
 30
0.0
  0
VERTEX
  8
MY3DLAYER
10
7.35557382209293
20
3.70941059075089
30
0.0
 70
     32
  0
VERTEX
  8
MY3DLAYER
10
7.35796966243198
20
3.69121237664212
30
0.0
 70
     32
  0
VERTEX
  8
MY3DLAYER
10
7.35796966243198
20
3.69121237664212
30
0.0625
 70
     32
  0
VERTEX
  8
MY3DLAYER
10
7.35557382209293
20
3.70941059075089
30
0.0625
 70
     32
  0
VERTEX
  8
MY3DLAYER
10
7.35557382209293
20
3.70941059075089
30
0.0
 70
     32
  0
SEQEND
  0
POLYLINE
 8
Group#1
 66
     1
70
    8
 10
0.0
 20
 0.0
 30
0.0
  0
VERTEX
  8
MY3DLAYER
10
7.34854957363557
20
3.72636862664212
30
0.0
 70
     32
  0
VERTEX
  8
MY3DLAYER
10
7.35557382209293
20
3.70941059075089
30
0.0
 70
     32
  0
VERTEX
  8
MY3DLAYER
10
7.35557382209293
20
3.70941059075089
30
0.0625
 70
     32
  0
VERTEX
  8
MY3DLAYER
10
7.34854957363557
20
3.72636862664212
30
0.0625
 70
     32
  0
VERTEX
  8
MY3DLAYER
10
7.34854957363557
20
3.72636862664212
30
0.0
 70
     32
  0
SEQEND
  0
POLYLINE
 8
Group#1
 66
     1
70
    8
 10
0.0
 20
 0.0
 30
0.0
  0
VERTEX
  8
MY3DLAYER
10
7.33737560798416
20
3.7409308221943
30
0.0
 70
     32
  0
VERTEX
  8
MY3DLAYER
10
7.34854957363557
20
3.72636862664212
30
0.0
 70
     32
  0
VERTEX
  8
MY3DLAYER
10
7.34854957363557
20
3.72636862664212
30
0.0625
 70
     32
  0
VERTEX
  8
MY3DLAYER
10
7.33737560798416
20
3.7409308221943
30
0.0625
 70
     32
  0
VERTEX
  8
MY3DLAYER
10
7.33737560798416
20
3.7409308221943
30
0.0
 70
     32
  0
SEQEND
  0
POLYLINE
 8
Group#1
 66
     1
70
    8
 10
0.0
 20
 0.0
 30
0.0
  0
VERTEX
  8
MY3DLAYER
10
7.52062007557652
20
4.53937189919338
30
0.0
 70
     32
  0
VERTEX
  8
MY3DLAYER
10
7.53765716243198
20
4.40996237664212
30
0.0
 70
     32
  0
VERTEX
  8
MY3DLAYER
10
7.53765716243198
20
2.94121237664212
30
0.0
 70
     32
  0
VERTEX
  8
MY3DLAYER
10
6.53765716243198
20
2.94121237664212
30
0.0
 70
     32
  0
VERTEX
  8
MY3DLAYER
10
6.53765716243198
20
4.40996237664212
30
0.0
 70
     32
  0
VERTEX
  8
MY3DLAYER
10
6.55469424928745
20
4.53937189919338
30
0.0
 70
     32
  0
VERTEX
  8
MY3DLAYER
10
6.60464446053976
20
4.65996237664212
30
0.0
 70
     32
  0
VERTEX
  8
MY3DLAYER
10
6.68410377183871
20
4.76351576723539
30
0.0
 70
     32
  0
VERTEX
  8
MY3DLAYER
10
6.78765716243198
20
4.84297507853434
30
0.0
 70
     32
  0
VERTEX
  8
MY3DLAYER
10
6.90824763988072
20
4.89292528978665
30
0.0
 70
     32
  0
VERTEX
  8
MY3DLAYER
10
7.03765716243198
20
4.90996237664212
30
0.0
 70
     32
  0
VERTEX
  8
MY3DLAYER
10
7.16706668498324
20
4.89292528978665
30
0.0
 70
     32
  0
VERTEX
  8
MY3DLAYER
10
7.28765716243198
20
4.84297507853434
30
0.0
 70
     32
  0
VERTEX
  8
MY3DLAYER
10
7.39121055302526
20
4.76351576723539
30
0.0
 70
     32
  0
VERTEX
  8
MY3DLAYER
10
7.4706698643242
20
4.65996237664212
30
0.0
 70
     32
  0
VERTEX
  8
MY3DLAYER
10
7.52062007557652
20
4.53937189919338
30
0.0
 70
     32
  0
SEQEND
  0
POLYLINE
 8
Group#1
 66
     1
70
    8
 10
0.0
 20
 0.0
 30
0.0
  0
VERTEX
  8
MY3DLAYER
10
7.22467940371172
20
4.42783585741236
30
0.0
 70
     32
  0
VERTEX
  8
MY3DLAYER
10
7.22176887330839
20
4.4766965691532
30
0.0
 70
     32
  0
VERTEX
  8
MY3DLAYER
10
7.20631143406782
20
4.5231390918148
30
0.0
 70
     32
  0
VERTEX
  8
MY3DLAYER
10
7.17936048492963
20
4.56399844422769
30
0.0
 70
     32
  0
VERTEX
  8
MY3DLAYER
10
7.14275268853903
20
4.59649012904819
30
0.0
 70
     32
  0
VERTEX
  8
MY3DLAYER
10
7.09898280572282
20
4.61839989165084
30
0.0
 70
     32
  0
VERTEX
  8
MY3DLAYER
10
7.05103368166174
20
4.62823461792186
30
0.0
 70
     32
  0
VERTEX
  8
MY3DLAYER
10
7.00217296992091
20
4.62532408751852
30
0.0
 70
     32
  0
VERTEX
  8
MY3DLAYER
10
6.9557304472593
20
4.60986664827795
30
0.0
 70
     32
  0
VERTEX
  8
MY3DLAYER
10
6.91487109484641
20
4.58291569913976
30
0.0
 70
     32
  0
VERTEX
  8
MY3DLAYER
10
6.88237941002591
20
4.54630790274917
30
0.0
 70
     32
  0
VERTEX
  8
MY3DLAYER
10
6.86046964742326
20
4.50253801993295
30
0.0
 70
     32
  0
VERTEX
  8
MY3DLAYER
10
6.85063492115225
20
4.45458889587188
30
0.0
 70
     32
  0
VERTEX
  8
MY3DLAYER
10
6.85354545155558
20
4.40572818413104
30
0.0
 70
     32
  0
VERTEX
  8
MY3DLAYER
10
6.86900289079615
20
4.35928566146944
30
0.0
 70
     32
  0
VERTEX
  8
MY3DLAYER
10
6.89595383993434
20
4.31842630905655
30
0.0
 70
     32
  0
VERTEX
  8
MY3DLAYER
10
6.93256163632493
20
4.28593462423605
30
0.0
 70
     32
  0
VERTEX
  8
MY3DLAYER
10
6.97633151914115
20
4.2640248616334
30
0.0
 70
     32
  0
VERTEX
  8
MY3DLAYER
10
7.02428064320222
20
4.25419013536238
30
0.0
 70
     32
  0
VERTEX
  8
MY3DLAYER
10
7.07314135494306
20
4.25710066576571
30
0.0
 70
     32
  0
VERTEX
  8
MY3DLAYER
10
7.11958387760466
20
4.27255810500628
30
0.0
 70
     32
  0
VERTEX
  8
MY3DLAYER
10
7.16044323001755
20
4.29950905414448
30
0.0
 70
     32
  0
VERTEX
  8
MY3DLAYER
10
7.19293491483806
20
4.33611685053507
30
0.0
 70
     32
  0
VERTEX
  8
MY3DLAYER
10
7.2148446774407
20
4.37988673335129
30
0.0
 70
     32
  0
VERTEX
  8
MY3DLAYER
10
7.22467940371172
20
4.42783585741236
30
0.0
 70
     32
  0
SEQEND
  0
POLYLINE
 8
Group#1
 66
     1
70
    8
 10
0.0
 20
 0.0
 30
0.0
  0
VERTEX
  8
MY3DLAYER
10
6.85796966243198
20
4.19121237664212
30
0.0
 70
     32
  0
VERTEX
  8
MY3DLAYER
10
6.85557382209293
20
4.20941059075089
30
0.0
 70
     32
  0
VERTEX
  8
MY3DLAYER
10
6.84854957363557
20
4.22636862664212
30
0.0
 70
     32
  0
VERTEX
  8
MY3DLAYER
10
6.83737560798416
20
4.2409308221943
30
0.0
 70
     32
  0
VERTEX
  8
MY3DLAYER
10
6.82281341243198
20
4.25210478784571
30
0.0
 70
     32
  0
VERTEX
  8
MY3DLAYER
10
6.80585537654075
20
4.25912903630307
30
0.0
 70
     32
  0
VERTEX
  8
MY3DLAYER
10
6.78765716243198
20
4.26152487664212
30
0.0
 70
     32
  0
VERTEX
  8
MY3DLAYER
10
6.76945894832321
20
4.25912903630307
30
0.0
 70
     32
  0
VERTEX
  8
MY3DLAYER
10
6.75250091243198
20
4.25210478784571
30
0.0
 70
     32
  0
VERTEX
  8
MY3DLAYER
10
6.7379387168798
20
4.2409308221943
30
0.0
 70
     32
  0
VERTEX
  8
MY3DLAYER
10
6.72676475122839
20
4.22636862664212
30
0.0
 70
     32
  0
VERTEX
  8
MY3DLAYER
10
6.71974050277103
20
4.20941059075089
30
0.0
 70
     32
  0
VERTEX
  8
MY3DLAYER
10
6.71734466243198
20
4.19121237664212
30
0.0
 70
     32
  0
VERTEX
  8
MY3DLAYER
10
6.71974050277103
20
4.17301416253335
30
0.0
 70
     32
  0
VERTEX
  8
MY3DLAYER
10
6.72676475122839
20
4.15605612664212
30
0.0
 70
     32
  0
VERTEX
  8
MY3DLAYER
10
6.7379387168798
20
4.14149393108994
30
0.0
 70
     32
  0
VERTEX
  8
MY3DLAYER
10
6.75250091243198
20
4.13031996543853
30
0.0
 70
     32
  0
VERTEX
  8
MY3DLAYER
10
6.76945894832321
20
4.12329571698117
30
0.0
 70
     32
  0
VERTEX
  8
MY3DLAYER
10
6.78765716243198
20
4.12089987664212
30
0.0
 70
     32
  0
VERTEX
  8
MY3DLAYER
10
6.80585537654075
20
4.12329571698117
30
0.0
 70
     32
  0
VERTEX
  8
MY3DLAYER
10
6.82281341243198
20
4.13031996543853
30
0.0
 70
     32
  0
VERTEX
  8
MY3DLAYER
10
6.83737560798416
20
4.14149393108994
30
0.0
 70
     32
  0
VERTEX
  8
MY3DLAYER
10
6.84854957363557
20
4.15605612664212
30
0.0
 70
     32
  0
VERTEX
  8
MY3DLAYER
10
6.85557382209293
20
4.17301416253335
30
0.0
 70
     32
  0
VERTEX
  8
MY3DLAYER
10
6.85796966243198
20
4.19121237664212
30
0.0
 70
     32
  0
SEQEND
  0
POLYLINE
 8
Group#1
 66
     1
70
    8
 10
0.0
 20
 0.0
 30
0.0
  0
VERTEX
  8
MY3DLAYER
10
7.29562886295917
20
4.12135323517191
30
0.0
 70
     32
  0
VERTEX
  8
MY3DLAYER
10
7.31343811013763
20
4.12579685561195
30
0.0
 70
     32
  0
VERTEX
  8
MY3DLAYER
10
7.32949042833499
20
4.13469843570594
30
0.0
 70
     32
  0
VERTEX
  8
MY3DLAYER
10
7.3426918785938
20
4.14745134748102
30
0.0
 70
     32
  0
VERTEX
  8
MY3DLAYER
10
7.35214280389535
20
4.16318650107492
30
0.0
 70
     32
  0
VERTEX
  8
MY3DLAYER
10
7.35719913929873
20
4.18083157177377
30
0.0
 70
     32
  0
VERTEX
  8
MY3DLAYER
10
7.35751630390219
20
4.1991840771693
30
0.0
 70
     32
  0
VERTEX
  8
MY3DLAYER
10
7.35307268346215
20
4.21699332434777
30
0.0
 70
     32
  0
VERTEX
  8
MY3DLAYER
10
7.34417110336816
20
4.23304564254513
30
0.0
 70
     32
  0
VERTEX
  8
MY3DLAYER
10
7.33141819159308
20
4.24624709280394
30
0.0
 70
     32
  0
VERTEX
  8
MY3DLAYER
10
7.31568303799918
20
4.25569801810548
30
0.0
 70
     32
  0
VERTEX
  8
MY3DLAYER
10
7.29803796730033
20
4.26075435350887
30
0.0
 70
     32
  0
VERTEX
  8
MY3DLAYER
10
7.2796854619048
20
4.26107151811233
30
0.0
 70
     32
  0
VERTEX
  8
MY3DLAYER
10
7.26187621472633
20
4.25662789767229
30
0.0
 70
     32
  0
VERTEX
  8
MY3DLAYER
10
7.24582389652897
20
4.2477263175783
30
0.0
 70
     32
  0
VERTEX
  8
MY3DLAYER
10
7.23262244627016
20
4.23497340580322
30
0.0
 70
     32
  0
VERTEX
  8
MY3DLAYER
10
7.22317152096862
20
4.21923825220932
30
0.0
 70
     32
  0
VERTEX
  8
MY3DLAYER
10
7.21811518556524
20
4.20159318151047
30
0.0
 70
     32
  0
VERTEX
  8
MY3DLAYER
10
7.21779802096177
20
4.18324067611494
30
0.0
 70
     32
  0
VERTEX
  8
MY3DLAYER
10
7.22224164140181
20
4.16543142893647
30
0.0
 70
     32
  0
VERTEX
  8
MY3DLAYER
10
7.2311432214958
20
4.14937911073911
30
0.0
 70
     32
  0
VERTEX
  8
MY3DLAYER
10
7.24389613327089
20
4.1361776604803
30
0.0
 70
     32
  0
VERTEX
  8
MY3DLAYER
10
7.25963128686478
20
4.12672673517875
30
0.0
 70
     32
  0
VERTEX
  8
MY3DLAYER
10
7.27727635756363
20
4.12167039977537
30
0.0
 70
     32
  0
VERTEX
  8
MY3DLAYER
10
7.29562886295917
20
4.12135323517191
30
0.0
 70
     32
  0
SEQEND
  0
POLYLINE
 8
Group#1
 66
     1
70
    8
 10
0.0
 20
 0.0
 30
0.0
  0
VERTEX
  8
MY3DLAYER
10
6.84226397541453
20
3.14691854375154
30
0.0
 70
     32
  0
VERTEX
  8
MY3DLAYER
10
6.85186738091584
20
3.16256110270001
30
0.0
 70
     32
  0
VERTEX
  8
MY3DLAYER
10
6.85709496613987
20
3.18015619861917
30
0.0
 70
     32
  0
VERTEX
  8
MY3DLAYER
10
6.8575904797926
20
3.19850475479939
30
0.0
 70
     32
  0
VERTEX
  8
MY3DLAYER
10
6.85332015343748
20
3.21635634745942
30
0.0
 70
     32
  0
VERTEX
  8
MY3DLAYER
10
6.84457500275856
20
3.23249442006063
30
0.0
 70
     32
  0
VERTEX
  8
MY3DLAYER
10
6.83195099532256
20
3.24581918962467
30
0.0
 70
     32
  0
VERTEX
  8
MY3DLAYER
10
6.81630843637409
20
3.25542259512597
30
0.0
 70
     32
  0
VERTEX
  8
MY3DLAYER
10
6.79871334045493
20
3.26065018035
30
0.0
 70
     32
  0
VERTEX
  8
MY3DLAYER
10
6.78036478427471
20
3.26114569400274
30
0.0
 70
     32
  0
VERTEX
  8
MY3DLAYER
10
6.76251319161468
20
3.25687536764762
30
0.0
 70
     32
  0
VERTEX
  8
MY3DLAYER
10
6.74637511901347
20
3.2481302169687
30
0.0
 70
     32
  0
VERTEX
  8
MY3DLAYER
10
6.73305034944943
20
3.2355062095327
30
0.0
 70
     32
  0
VERTEX
  8
MY3DLAYER
10
6.72344694394813
20
3.21986365058423
30
0.0
 70
     32
  0
VERTEX
  8
MY3DLAYER
10
6.7182193587241
20
3.20226855466507
30
0.0
 70
     32
  0
VERTEX
  8
MY3DLAYER
10
6.71772384507136
20
3.18391999848485
30
0.0
 70
     32
  0
VERTEX
  8
MY3DLAYER
10
6.72199417142648
20
3.16606840582482
30
0.0
 70
     32
  0
VERTEX
  8
MY3DLAYER
10
6.7307393221054
20
3.14993033322361
30
0.0
 70
     32
  0
VERTEX
  8
MY3DLAYER
10
6.7433633295414
20
3.13660556365957
30
0.0
 70
     32
  0
VERTEX
  8
MY3DLAYER
10
6.75900588848987
20
3.12700215815827
30
0.0
 70
     32
  0
VERTEX
  8
MY3DLAYER
10
6.77660098440903
20
3.12177457293423
30
0.0
 70
     32
  0
VERTEX
  8
MY3DLAYER
10
6.79494954058925
20
3.1212790592815
30
0.0
 70
     32
  0
VERTEX
  8
MY3DLAYER
10
6.81280113324928
20
3.12554938563662
30
0.0
 70
     32
  0
VERTEX
  8
MY3DLAYER
10
6.82893920585049
20
3.13429453631554
30
0.0
 70
     32
  0
VERTEX
  8
MY3DLAYER
10
6.84226397541453
20
3.14691854375154
30
0.0
 70
     32
  0
SEQEND
  0
POLYLINE
 8
Group#1
 66
     1
70
    8
 10
0.0
 20
 0.0
 30
0.0
  0
VERTEX
  8
MY3DLAYER
10
7.33933448003689
20
3.1435332145122
30
0.0
 70
     32
  0
VERTEX
  8
MY3DLAYER
10
7.34991389335366
20
3.15853291656097
30
0.0
 70
     32
  0
VERTEX
  8
MY3DLAYER
10
7.35625061334223
20
3.17575966980891
30
0.0
 70
     32
  0
VERTEX
  8
MY3DLAYER
10
7.3579128030073
20
3.19403949949072
30
0.0
 70
     32
  0
VERTEX
  8
MY3DLAYER
10
7.35478718687011
20
3.21212666542245
30
0.0
 70
     32
  0
VERTEX
  8
MY3DLAYER
10
7.34708677050506
20
3.22878855713629
30
0.0
 70
     32
  0
VERTEX
  8
MY3DLAYER
10
7.3353363245619
20
3.24288969424703
30
0.0
 70
     32
  0
VERTEX
  8
MY3DLAYER
10
7.32033662251313
20
3.2534691075638
30
0.0
 70
     32
  0
VERTEX
  8
MY3DLAYER
10
7.30310986926519
20
3.25980582755237
30
0.0
 70
     32
  0
VERTEX
  8
MY3DLAYER
10
7.28483003958338
20
3.26146801721744
30
0.0
 70
     32
  0
VERTEX
  8
MY3DLAYER
10
7.26674287365165
20
3.25834240108024
30
0.0
 70
     32
  0
VERTEX
  8
MY3DLAYER
10
7.25008098193781
20
3.25064198471519
30
0.0
 70
     32
  0
VERTEX
  8
MY3DLAYER
10
7.23597984482707
20
3.23889153877204
30
0.0
 70
     32
  0
VERTEX
  8
MY3DLAYER
10
7.2254004315103
20
3.22389183672327
30
0.0
 70
     32
  0
VERTEX
  8
MY3DLAYER
10
7.21906371152173
20
3.20666508347533
30
0.0
 70
     32
  0
VERTEX
  8
MY3DLAYER
10
7.21740152185666
20
3.18838525379351
30
0.0
 70
     32
  0
VERTEX
  8
MY3DLAYER
10
7.22052713799386
20
3.17029808786179
30
0.0
 70
     32
  0
VERTEX
  8
MY3DLAYER
10
7.22822755435891
20
3.15363619614795
30
0.0
 70
     32
  0
VERTEX
  8
MY3DLAYER
10
7.23997800030206
20
3.13953505903721
30
0.0
 70
     32
  0
VERTEX
  8
MY3DLAYER
10
7.25497770235083
20
3.12895564572044
30
0.0
 70
     32
  0
VERTEX
  8
MY3DLAYER
10
7.27220445559877
20
3.12261892573187
30
0.0
 70
     32
  0
VERTEX
  8
MY3DLAYER
10
7.29048428528059
20
3.1209567360668
30
0.0
 70
     32
  0
VERTEX
  8
MY3DLAYER
10
7.30857145121231
20
3.124082352204
30
0.0
 70
     32
  0
VERTEX
  8
MY3DLAYER
10
7.32523334292615
20
3.13178276856904
30
0.0
 70
     32
  0
VERTEX
  8
MY3DLAYER
10
7.33933448003689
20
3.1435332145122
30
0.0
 70
     32
  0
SEQEND
  0
POLYLINE
 8
Group#1
 66
     1
70
    8
 10
0.0
 20
 0.0
 30
0.0
  0
VERTEX
  8
MY3DLAYER
10
6.77932329389322
20
3.76102923915705
30
0.0
 70
     32
  0
VERTEX
  8
MY3DLAYER
10
6.76153732988933
20
3.75649332335855
30
0.0
 70
     32
  0
VERTEX
  8
MY3DLAYER
10
6.74553138930815
20
3.74750861892319
30
0.0
 70
     32
  0
VERTEX
  8
MY3DLAYER
10
6.73239625054923
20
3.73468741861032
30
0.0
 70
     32
  0
VERTEX
  8
MY3DLAYER
10
6.72302705161215
20
3.71890346603322
30
0.0
 70
     32
  0
VERTEX
  8
MY3DLAYER
10
6.71806228792113
20
3.7012324114758
30
0.0
 70
     32
  0
VERTEX
  8
MY3DLAYER
10
6.71784029991705
20
3.68287850810336
30
0.0
 70
     32
  0
VERTEX
  8
MY3DLAYER
10
6.72237621571555
20
3.66509254409946
30
0.0
 70
     32
  0
VERTEX
  8
MY3DLAYER
10
6.73136092015091
20
3.64908660351829
30
0.0
 70
     32
  0
VERTEX
  8
MY3DLAYER
10
6.74418212046378
20
3.63595146475937
30
0.0
 70
     32
  0
VERTEX
  8
MY3DLAYER
10
6.75996607304088
20
3.62658226582228
30
0.0
 70
     32
  0
VERTEX
  8
MY3DLAYER
10
6.7776371275983
20
3.62161750213126
30
0.0
 70
     32
  0
VERTEX
  8
MY3DLAYER
10
6.79599103097074
20
3.62139551412719
30
0.0
 70
     32
  0
VERTEX
  8
MY3DLAYER
10
6.81377699497464
20
3.62593142992569
30
0.0
 70
     32
  0
VERTEX
  8
MY3DLAYER
10
6.82978293555581
20
3.63491613436104
30
0.0
 70
     32
  0
VERTEX
  8
MY3DLAYER
10
6.84291807431473
20
3.64773733467392
30
0.0
 70
     32
  0
VERTEX
  8
MY3DLAYER
10
6.85228727325182
20
3.66352128725102
30
0.0
 70
     32
  0
VERTEX
  8
MY3DLAYER
10
6.85725203694284
20
3.68119234180844
30
0.0
 70
     32
  0
VERTEX
  8
MY3DLAYER
10
6.85747402494691
20
3.69954624518088
30
0.0
 70
     32
  0
VERTEX
  8
MY3DLAYER
10
6.85293810914841
20
3.71733220918478
30
0.0
 70
     32
  0
VERTEX
  8
MY3DLAYER
10
6.84395340471306
20
3.73333814976595
30
0.0
 70
     32
  0
VERTEX
  8
MY3DLAYER
10
6.83113220440018
20
3.74647328852487
30
0.0
 70
     32
  0
VERTEX
  8
MY3DLAYER
10
6.81534825182308
20
3.75584248746195
30
0.0
 70
     32
  0
VERTEX
  8
MY3DLAYER
10
6.79767719726566
20
3.76080725115297
30
0.0
 70
     32
  0
VERTEX
  8
MY3DLAYER
10
6.77932329389322
20
3.76102923915705
30
0.0
 70
     32
  0
SEQEND
  0
POLYLINE
 8
Group#1
 66
     1
70
    8
 10
0.0
 20
 0.0
 30
0.0
  0
VERTEX
  8
MY3DLAYER
10
7.33737560798416
20
3.7409308221943
30
0.0
 70
     32
  0
VERTEX
  8
MY3DLAYER
10
7.32281341243198
20
3.75210478784571
30
0.0
 70
     32
  0
VERTEX
  8
MY3DLAYER
10
7.30585537654075
20
3.75912903630307
30
0.0
 70
     32
  0
VERTEX
  8
MY3DLAYER
10
7.28765716243198
20
3.76152487664212
30
0.0
 70
     32
  0
VERTEX
  8
MY3DLAYER
10
7.26945894832321
20
3.75912903630307
30
0.0
 70
     32
  0
VERTEX
  8
MY3DLAYER
10
7.25250091243198
20
3.75210478784571
30
0.0
 70
     32
  0
VERTEX
  8
MY3DLAYER
10
7.2379387168798
20
3.7409308221943
30
0.0
 70
     32
  0
VERTEX
  8
MY3DLAYER
10
7.22676475122839
20
3.72636862664212
30
0.0
 70
     32
  0
VERTEX
  8
MY3DLAYER
10
7.21974050277103
20
3.70941059075089
30
0.0
 70
     32
  0
VERTEX
  8
MY3DLAYER
10
7.21734466243198
20
3.69121237664212
30
0.0
 70
     32
  0
VERTEX
  8
MY3DLAYER
10
7.21974050277103
20
3.67301416253335
30
0.0
 70
     32
  0
VERTEX
  8
MY3DLAYER
10
7.22676475122839
20
3.65605612664212
30
0.0
 70
     32
  0
VERTEX
  8
MY3DLAYER
10
7.2379387168798
20
3.64149393108994
30
0.0
 70
     32
  0
VERTEX
  8
MY3DLAYER
10
7.25250091243198
20
3.63031996543853
30
0.0
 70
     32
  0
VERTEX
  8
MY3DLAYER
10
7.26945894832321
20
3.62329571698117
30
0.0
 70
     32
  0
VERTEX
  8
MY3DLAYER
10
7.28765716243198
20
3.62089987664212
30
0.0
 70
     32
  0
VERTEX
  8
MY3DLAYER
10
7.30585537654075
20
3.62329571698117
30
0.0
 70
     32
  0
VERTEX
  8
MY3DLAYER
10
7.32281341243198
20
3.63031996543853
30
0.0
 70
     32
  0
VERTEX
  8
MY3DLAYER
10
7.33737560798416
20
3.64149393108994
30
0.0
 70
     32
  0
VERTEX
  8
MY3DLAYER
10
7.34854957363557
20
3.65605612664212
30
0.0
 70
     32
  0
VERTEX
  8
MY3DLAYER
10
7.35557382209293
20
3.67301416253335
30
0.0
 70
     32
  0
VERTEX
  8
MY3DLAYER
10
7.35796966243198
20
3.69121237664212
30
0.0
 70
     32
  0
VERTEX
  8
MY3DLAYER
10
7.35557382209293
20
3.70941059075089
30
0.0
 70
     32
  0
VERTEX
  8
MY3DLAYER
10
7.34854957363557
20
3.72636862664212
30
0.0
 70
     32
  0
VERTEX
  8
MY3DLAYER
10
7.33737560798416
20
3.7409308221943
30
0.0
 70
     32
  0
SEQEND
  0
POLYLINE
 8
Group#1
 66
     1
70
    8
 10
0.0
 20
 0.0
 30
0.0
  0
VERTEX
  8
MY3DLAYER
10
7.53765716243198
20
4.40996237664212
30
0.0
 70
     32
  0
VERTEX
  8
MY3DLAYER
10
7.52062007557652
20
4.53937189919338
30
0.0
 70
     32
  0
VERTEX
  8
MY3DLAYER
10
7.52062007557652
20
4.53937189919338
30
0.0625
 70
     32
  0
VERTEX
  8
MY3DLAYER
10
7.53765716243198
20
4.40996237664212
30
0.0625
 70
     32
  0
VERTEX
  8
MY3DLAYER
10
7.53765716243198
20
4.40996237664212
30
0.0
 70
     32
  0
SEQEND
  0
POLYLINE
 8
Group#1
 66
     1
70
    8
 10
0.0
 20
 0.0
 30
0.0
  0
VERTEX
  8
MY3DLAYER
10
7.05103368166174
20
4.62823461792186
30
0.0
 70
     32
  0
VERTEX
  8
MY3DLAYER
10
7.09898280572282
20
4.61839989165084
30
0.0
 70
     32
  0
VERTEX
  8
MY3DLAYER
10
7.09898280572282
20
4.61839989165084
30
0.0625
 70
     32
  0
VERTEX
  8
MY3DLAYER
10
7.05103368166174
20
4.62823461792186
30
0.0625
 70
     32
  0
VERTEX
  8
MY3DLAYER
10
7.05103368166174
20
4.62823461792186
30
0.0
 70
     32
  0
SEQEND
  0
POLYLINE
 8
Group#1
 66
     1
70
    8
 10
0.0
 20
 0.0
 30
0.0
  0
VERTEX
  8
MY3DLAYER
10
7.00217296992091
20
4.62532408751852
30
0.0
 70
     32
  0
VERTEX
  8
MY3DLAYER
10
7.05103368166174
20
4.62823461792186
30
0.0
 70
     32
  0
VERTEX
  8
MY3DLAYER
10
7.05103368166174
20
4.62823461792186
30
0.0625
 70
     32
  0
VERTEX
  8
MY3DLAYER
10
7.00217296992091
20
4.62532408751852
30
0.0625
 70
     32
  0
VERTEX
  8
MY3DLAYER
10
7.00217296992091
20
4.62532408751852
30
0.0
 70
     32
  0
SEQEND
  0
POLYLINE
 8
Group#1
 66
     1
70
    8
 10
0.0
 20
 0.0
 30
0.0
  0
VERTEX
  8
MY3DLAYER
10
6.53765716243198
20
4.40996237664212
30
0.0
 70
     32
  0
VERTEX
  8
MY3DLAYER
10
6.53765716243198
20
2.94121237664212
30
0.0
 70
     32
  0
VERTEX
  8
MY3DLAYER
10
6.53765716243198
20
2.94121237664212
30
0.0625
 70
     32
  0
VERTEX
  8
MY3DLAYER
10
6.53765716243198
20
4.40996237664212
30
0.0625
 70
     32
  0
VERTEX
  8
MY3DLAYER
10
6.53765716243198
20
4.40996237664212
30
0.0
 70
     32
  0
SEQEND
  0
POLYLINE
 8
Group#1
 66
     1
70
    8
 10
0.0
 20
 0.0
 30
0.0
  0
VERTEX
  8
MY3DLAYER
10
6.55469424928745
20
4.53937189919338
30
0.0
 70
     32
  0
VERTEX
  8
MY3DLAYER
10
6.53765716243198
20
4.40996237664212
30
0.0
 70
     32
  0
VERTEX
  8
MY3DLAYER
10
6.53765716243198
20
4.40996237664212
30
0.0625
 70
     32
  0
VERTEX
  8
MY3DLAYER
10
6.55469424928745
20
4.53937189919338
30
0.0625
 70
     32
  0
VERTEX
  8
MY3DLAYER
10
6.55469424928745
20
4.53937189919338
30
0.0
 70
     32
  0
SEQEND
  0
POLYLINE
 8
Group#1
 66
     1
70
    8
 10
0.0
 20
 0.0
 30
0.0
  0
VERTEX
  8
MY3DLAYER
10
6.82893920585049
20
3.13429453631554
30
0.0
 70
     32
  0
VERTEX
  8
MY3DLAYER
10
6.81280113324928
20
3.12554938563662
30
0.0
 70
     32
  0
VERTEX
  8
MY3DLAYER
10
6.81280113324928
20
3.12554938563662
30
0.0625
 70
     32
  0
VERTEX
  8
MY3DLAYER
10
6.82893920585049
20
3.13429453631554
30
0.0625
 70
     32
  0
VERTEX
  8
MY3DLAYER
10
6.82893920585049
20
3.13429453631554
30
0.0
 70
     32
  0
SEQEND
  0
POLYLINE
 8
Group#1
 66
     1
70
    8
 10
0.0
 20
 0.0
 30
0.0
  0
VERTEX
  8
MY3DLAYER
10
7.4706698643242
20
4.65996237664212
30
0.0
 70
     32
  0
VERTEX
  8
MY3DLAYER
10
7.39121055302526
20
4.76351576723539
30
0.0
 70
     32
  0
VERTEX
  8
MY3DLAYER
10
7.39121055302526
20
4.76351576723539
30
0.0625
 70
     32
  0
VERTEX
  8
MY3DLAYER
10
7.4706698643242
20
4.65996237664212
30
0.0625
 70
     32
  0
VERTEX
  8
MY3DLAYER
10
7.4706698643242
20
4.65996237664212
30
0.0
 70
     32
  0
SEQEND
  0
POLYLINE
 8
Group#1
 66
     1
70
    8
 10
0.0
 20
 0.0
 30
0.0
  0
VERTEX
  8
MY3DLAYER
10
7.52062007557652
20
4.53937189919338
30
0.0
 70
     32
  0
VERTEX
  8
MY3DLAYER
10
7.4706698643242
20
4.65996237664212
30
0.0
 70
     32
  0
VERTEX
  8
MY3DLAYER
10
7.4706698643242
20
4.65996237664212
30
0.0625
 70
     32
  0
VERTEX
  8
MY3DLAYER
10
7.52062007557652
20
4.53937189919338
30
0.0625
 70
     32
  0
VERTEX
  8
MY3DLAYER
10
7.52062007557652
20
4.53937189919338
30
0.0
 70
     32
  0
SEQEND
  0
POLYLINE
 8
Group#1
 66
     1
70
    8
 10
0.0
 20
 0.0
 30
0.0
  0
VERTEX
  8
MY3DLAYER
10
6.84291807431473
20
3.64773733467392
30
0.0
 70
     32
  0
VERTEX
  8
MY3DLAYER
10
6.82978293555581
20
3.63491613436104
30
0.0
 70
     32
  0
VERTEX
  8
MY3DLAYER
10
6.82978293555581
20
3.63491613436104
30
0.0625
 70
     32
  0
VERTEX
  8
MY3DLAYER
10
6.84291807431473
20
3.64773733467392
30
0.0625
 70
     32
  0
VERTEX
  8
MY3DLAYER
10
6.84291807431473
20
3.64773733467392
30
0.0
 70
     32
  0
SEQEND
  0
POLYLINE
 8
Group#1
 66
     1
70
    8
 10
0.0
 20
 0.0
 30
0.0
  0
VERTEX
  8
MY3DLAYER
10
6.85228727325182
20
3.66352128725102
30
0.0
 70
     32
  0
VERTEX
  8
MY3DLAYER
10
6.84291807431473
20
3.64773733467392
30
0.0
 70
     32
  0
VERTEX
  8
MY3DLAYER
10
6.84291807431473
20
3.64773733467392
30
0.0625
 70
     32
  0
VERTEX
  8
MY3DLAYER
10
6.85228727325182
20
3.66352128725102
30
0.0625
 70
     32
  0
VERTEX
  8
MY3DLAYER
10
6.85228727325182
20
3.66352128725102
30
0.0
 70
     32
  0
SEQEND
  0
POLYLINE
 8
Group#1
 66
     1
70
    8
 10
0.0
 20
 0.0
 30
0.0
  0
VERTEX
  8
MY3DLAYER
10
6.85725203694284
20
3.68119234180844
30
0.0
 70
     32
  0
VERTEX
  8
MY3DLAYER
10
6.85228727325182
20
3.66352128725102
30
0.0
 70
     32
  0
VERTEX
  8
MY3DLAYER
10
6.85228727325182
20
3.66352128725102
30
0.0625
 70
     32
  0
VERTEX
  8
MY3DLAYER
10
6.85725203694284
20
3.68119234180844
30
0.0625
 70
     32
  0
VERTEX
  8
MY3DLAYER
10
6.85725203694284
20
3.68119234180844
30
0.0
 70
     32
  0
SEQEND
  0
POLYLINE
 8
Group#1
 66
     1
70
    8
 10
0.0
 20
 0.0
 30
0.0
  0
VERTEX
  8
MY3DLAYER
10
6.85747402494691
20
3.69954624518088
30
0.0
 70
     32
  0
VERTEX
  8
MY3DLAYER
10
6.85725203694284
20
3.68119234180844
30
0.0
 70
     32
  0
VERTEX
  8
MY3DLAYER
10
6.85725203694284
20
3.68119234180844
30
0.0625
 70
     32
  0
VERTEX
  8
MY3DLAYER
10
6.85747402494691
20
3.69954624518088
30
0.0625
 70
     32
  0
VERTEX
  8
MY3DLAYER
10
6.85747402494691
20
3.69954624518088
30
0.0
 70
     32
  0
SEQEND
  0
POLYLINE
 8
Group#1
 66
     1
70
    8
 10
0.0
 20
 0.0
 30
0.0
  0
VERTEX
  8
MY3DLAYER
10
6.85293810914841
20
3.71733220918478
30
0.0
 70
     32
  0
VERTEX
  8
MY3DLAYER
10
6.85747402494691
20
3.69954624518088
30
0.0
 70
     32
  0
VERTEX
  8
MY3DLAYER
10
6.85747402494691
20
3.69954624518088
30
0.0625
 70
     32
  0
VERTEX
  8
MY3DLAYER
10
6.85293810914841
20
3.71733220918478
30
0.0625
 70
     32
  0
VERTEX
  8
MY3DLAYER
10
6.85293810914841
20
3.71733220918478
30
0.0
 70
     32
  0
SEQEND
  0
POLYLINE
 8
Group#1
 66
     1
70
    8
 10
0.0
 20
 0.0
 30
0.0
  0
VERTEX
  8
MY3DLAYER
10
7.3579128030073
20
3.19403949949072
30
0.0
 70
     32
  0
VERTEX
  8
MY3DLAYER
10
7.35625061334223
20
3.17575966980891
30
0.0
 70
     32
  0
VERTEX
  8
MY3DLAYER
10
7.35625061334223
20
3.17575966980891
30
0.0625
 70
     32
  0
VERTEX
  8
MY3DLAYER
10
7.3579128030073
20
3.19403949949072
30
0.0625
 70
     32
  0
VERTEX
  8
MY3DLAYER
10
7.3579128030073
20
3.19403949949072
30
0.0
 70
     32
  0
SEQEND
  0
POLYLINE
 8
Group#1
 66
     1
70
    8
 10
0.0
 20
 0.0
 30
0.0
  0
VERTEX
  8
MY3DLAYER
10
7.35478718687011
20
3.21212666542245
30
0.0
 70
     32
  0
VERTEX
  8
MY3DLAYER
10
7.3579128030073
20
3.19403949949072
30
0.0
 70
     32
  0
VERTEX
  8
MY3DLAYER
10
7.3579128030073
20
3.19403949949072
30
0.0625
 70
     32
  0
VERTEX
  8
MY3DLAYER
10
7.35478718687011
20
3.21212666542245
30
0.0625
 70
     32
  0
VERTEX
  8
MY3DLAYER
10
7.35478718687011
20
3.21212666542245
30
0.0
 70
     32
  0
SEQEND
  0
POLYLINE
 8
Group#1
 66
     1
70
    8
 10
0.0
 20
 0.0
 30
0.0
  0
VERTEX
  8
MY3DLAYER
10
7.34708677050506
20
3.22878855713629
30
0.0
 70
     32
  0
VERTEX
  8
MY3DLAYER
10
7.35478718687011
20
3.21212666542245
30
0.0
 70
     32
  0
VERTEX
  8
MY3DLAYER
10
7.35478718687011
20
3.21212666542245
30
0.0625
 70
     32
  0
VERTEX
  8
MY3DLAYER
10
7.34708677050506
20
3.22878855713629
30
0.0625
 70
     32
  0
VERTEX
  8
MY3DLAYER
10
7.34708677050506
20
3.22878855713629
30
0.0
 70
     32
  0
SEQEND
  0
POLYLINE
 8
Group#1
 66
     1
70
    8
 10
0.0
 20
 0.0
 30
0.0
  0
VERTEX
  8
MY3DLAYER
10
7.3353363245619
20
3.24288969424703
30
0.0
 70
     32
  0
VERTEX
  8
MY3DLAYER
10
7.34708677050506
20
3.22878855713629
30
0.0
 70
     32
  0
VERTEX
  8
MY3DLAYER
10
7.34708677050506
20
3.22878855713629
30
0.0625
 70
     32
  0
VERTEX
  8
MY3DLAYER
10
7.3353363245619
20
3.24288969424703
30
0.0625
 70
     32
  0
VERTEX
  8
MY3DLAYER
10
7.3353363245619
20
3.24288969424703
30
0.0
 70
     32
  0
SEQEND
  0
POLYLINE
 8
Group#1
 66
     1
70
    8
 10
0.0
 20
 0.0
 30
0.0
  0
VERTEX
  8
MY3DLAYER
10
7.32033662251313
20
3.2534691075638
30
0.0
 70
     32
  0
VERTEX
  8
MY3DLAYER
10
7.3353363245619
20
3.24288969424703
30
0.0
 70
     32
  0
VERTEX
  8
MY3DLAYER
10
7.3353363245619
20
3.24288969424703
30
0.0625
 70
     32
  0
VERTEX
  8
MY3DLAYER
10
7.32033662251313
20
3.2534691075638
30
0.0625
 70
     32
  0
VERTEX
  8
MY3DLAYER
10
7.32033662251313
20
3.2534691075638
30
0.0
 70
     32
  0
SEQEND
  0
POLYLINE
 8
Group#1
 66
     1
70
    8
 10
0.0
 20
 0.0
 30
0.0
  0
VERTEX
  8
MY3DLAYER
10
7.30310986926519
20
3.25980582755237
30
0.0
 70
     32
  0
VERTEX
  8
MY3DLAYER
10
7.32033662251313
20
3.2534691075638
30
0.0
 70
     32
  0
VERTEX
  8
MY3DLAYER
10
7.32033662251313
20
3.2534691075638
30
0.0625
 70
     32
  0
VERTEX
  8
MY3DLAYER
10
7.30310986926519
20
3.25980582755237
30
0.0625
 70
     32
  0
VERTEX
  8
MY3DLAYER
10
7.30310986926519
20
3.25980582755237
30
0.0
 70
     32
  0
SEQEND
  0
POLYLINE
 8
Group#1
 66
     1
70
    8
 10
0.0
 20
 0.0
 30
0.0
  0
VERTEX
  8
MY3DLAYER
10
7.28483003958338
20
3.26146801721744
30
0.0
 70
     32
  0
VERTEX
  8
MY3DLAYER
10
7.30310986926519
20
3.25980582755237
30
0.0
 70
     32
  0
VERTEX
  8
MY3DLAYER
10
7.30310986926519
20
3.25980582755237
30
0.0625
 70
     32
  0
VERTEX
  8
MY3DLAYER
10
7.28483003958338
20
3.26146801721744
30
0.0625
 70
     32
  0
VERTEX
  8
MY3DLAYER
10
7.28483003958338
20
3.26146801721744
30
0.0
 70
     32
  0
SEQEND
  0
POLYLINE
 8
Group#1
 66
     1
70
    8
 10
0.0
 20
 0.0
 30
0.0
  0
VERTEX
  8
MY3DLAYER
10
7.26674287365165
20
3.25834240108024
30
0.0
 70
     32
  0
VERTEX
  8
MY3DLAYER
10
7.28483003958338
20
3.26146801721744
30
0.0
 70
     32
  0
VERTEX
  8
MY3DLAYER
10
7.28483003958338
20
3.26146801721744
30
0.0625
 70
     32
  0
VERTEX
  8
MY3DLAYER
10
7.26674287365165
20
3.25834240108024
30
0.0625
 70
     32
  0
VERTEX
  8
MY3DLAYER
10
7.26674287365165
20
3.25834240108024
30
0.0
 70
     32
  0
SEQEND
  0
POLYLINE
 8
Group#1
 66
     1
70
    8
 10
0.0
 20
 0.0
 30
0.0
  0
VERTEX
  8
MY3DLAYER
10
7.25008098193781
20
3.25064198471519
30
0.0
 70
     32
  0
VERTEX
  8
MY3DLAYER
10
7.26674287365165
20
3.25834240108024
30
0.0
 70
     32
  0
VERTEX
  8
MY3DLAYER
10
7.26674287365165
20
3.25834240108024
30
0.0625
 70
     32
  0
VERTEX
  8
MY3DLAYER
10
7.25008098193781
20
3.25064198471519
30
0.0625
 70
     32
  0
VERTEX
  8
MY3DLAYER
10
7.25008098193781
20
3.25064198471519
30
0.0
 70
     32
  0
SEQEND
  0
POLYLINE
 8
Group#1
 66
     1
70
    8
 10
0.0
 20
 0.0
 30
0.0
  0
VERTEX
  8
MY3DLAYER
10
7.23597984482707
20
3.23889153877204
30
0.0
 70
     32
  0
VERTEX
  8
MY3DLAYER
10
7.25008098193781
20
3.25064198471519
30
0.0
 70
     32
  0
VERTEX
  8
MY3DLAYER
10
7.25008098193781
20
3.25064198471519
30
0.0625
 70
     32
  0
VERTEX
  8
MY3DLAYER
10
7.23597984482707
20
3.23889153877204
30
0.0625
 70
     32
  0
VERTEX
  8
MY3DLAYER
10
7.23597984482707
20
3.23889153877204
30
0.0
 70
     32
  0
SEQEND
  0
POLYLINE
 8
Group#1
 66
     1
70
    8
 10
0.0
 20
 0.0
 30
0.0
  0
VERTEX
  8
MY3DLAYER
10
7.2254004315103
20
3.22389183672327
30
0.0
 70
     32
  0
VERTEX
  8
MY3DLAYER
10
7.23597984482707
20
3.23889153877204
30
0.0
 70
     32
  0
VERTEX
  8
MY3DLAYER
10
7.23597984482707
20
3.23889153877204
30
0.0625
 70
     32
  0
VERTEX
  8
MY3DLAYER
10
7.2254004315103
20
3.22389183672327
30
0.0625
 70
     32
  0
VERTEX
  8
MY3DLAYER
10
7.2254004315103
20
3.22389183672327
30
0.0
 70
     32
  0
SEQEND
  0
POLYLINE
 8
Group#1
 66
     1
70
    8
 10
0.0
 20
 0.0
 30
0.0
  0
VERTEX
  8
MY3DLAYER
10
7.21906371152173
20
3.20666508347533
30
0.0
 70
     32
  0
VERTEX
  8
MY3DLAYER
10
7.2254004315103
20
3.22389183672327
30
0.0
 70
     32
  0
VERTEX
  8
MY3DLAYER
10
7.2254004315103
20
3.22389183672327
30
0.0625
 70
     32
  0
VERTEX
  8
MY3DLAYER
10
7.21906371152173
20
3.20666508347533
30
0.0625
 70
     32
  0
VERTEX
  8
MY3DLAYER
10
7.21906371152173
20
3.20666508347533
30
0.0
 70
     32
  0
SEQEND
  0
POLYLINE
 8
Group#1
 66
     1
70
    8
 10
0.0
 20
 0.0
 30
0.0
  0
VERTEX
  8
MY3DLAYER
10
7.21740152185666
20
3.18838525379351
30
0.0
 70
     32
  0
VERTEX
  8
MY3DLAYER
10
7.21906371152173
20
3.20666508347533
30
0.0
 70
     32
  0
VERTEX
  8
MY3DLAYER
10
7.21906371152173
20
3.20666508347533
30
0.0625
 70
     32
  0
VERTEX
  8
MY3DLAYER
10
7.21740152185666
20
3.18838525379351
30
0.0625
 70
     32
  0
VERTEX
  8
MY3DLAYER
10
7.21740152185666
20
3.18838525379351
30
0.0
 70
     32
  0
SEQEND
  0
POLYLINE
 8
Group#1
 66
     1
70
    8
 10
0.0
 20
 0.0
 30
0.0
  0
VERTEX
  8
MY3DLAYER
10
7.22052713799386
20
3.17029808786179
30
0.0
 70
     32
  0
VERTEX
  8
MY3DLAYER
10
7.21740152185666
20
3.18838525379351
30
0.0
 70
     32
  0
VERTEX
  8
MY3DLAYER
10
7.21740152185666
20
3.18838525379351
30
0.0625
 70
     32
  0
VERTEX
  8
MY3DLAYER
10
7.22052713799386
20
3.17029808786179
30
0.0625
 70
     32
  0
VERTEX
  8
MY3DLAYER
10
7.22052713799386
20
3.17029808786179
30
0.0
 70
     32
  0
SEQEND
  0
POLYLINE
 8
Group#1
 66
     1
70
    8
 10
0.0
 20
 0.0
 30
0.0
  0
VERTEX
  8
MY3DLAYER
10
7.22822755435891
20
3.15363619614795
30
0.0
 70
     32
  0
VERTEX
  8
MY3DLAYER
10
7.22052713799386
20
3.17029808786179
30
0.0
 70
     32
  0
VERTEX
  8
MY3DLAYER
10
7.22052713799386
20
3.17029808786179
30
0.0625
 70
     32
  0
VERTEX
  8
MY3DLAYER
10
7.22822755435891
20
3.15363619614795
30
0.0625
 70
     32
  0
VERTEX
  8
MY3DLAYER
10
7.22822755435891
20
3.15363619614795
30
0.0
 70
     32
  0
SEQEND
  0
POLYLINE
 8
Group#1
 66
     1
70
    8
 10
0.0
 20
 0.0
 30
0.0
  0
VERTEX
  8
MY3DLAYER
10
7.23997800030206
20
3.13953505903721
30
0.0
 70
     32
  0
VERTEX
  8
MY3DLAYER
10
7.22822755435891
20
3.15363619614795
30
0.0
 70
     32
  0
VERTEX
  8
MY3DLAYER
10
7.22822755435891
20
3.15363619614795
30
0.0625
 70
     32
  0
VERTEX
  8
MY3DLAYER
10
7.23997800030206
20
3.13953505903721
30
0.0625
 70
     32
  0
VERTEX
  8
MY3DLAYER
10
7.23997800030206
20
3.13953505903721
30
0.0
 70
     32
  0
SEQEND
  0
POLYLINE
 8
Group#1
 66
     1
70
    8
 10
0.0
 20
 0.0
 30
0.0
  0
VERTEX
  8
MY3DLAYER
10
7.25497770235083
20
3.12895564572044
30
0.0
 70
     32
  0
VERTEX
  8
MY3DLAYER
10
7.23997800030206
20
3.13953505903721
30
0.0
 70
     32
  0
VERTEX
  8
MY3DLAYER
10
7.23997800030206
20
3.13953505903721
30
0.0625
 70
     32
  0
VERTEX
  8
MY3DLAYER
10
7.25497770235083
20
3.12895564572044
30
0.0625
 70
     32
  0
VERTEX
  8
MY3DLAYER
10
7.25497770235083
20
3.12895564572044
30
0.0
 70
     32
  0
SEQEND
  0
POLYLINE
 8
Group#1
 66
     1
70
    8
 10
0.0
 20
 0.0
 30
0.0
  0
VERTEX
  8
MY3DLAYER
10
7.27220445559877
20
3.12261892573187
30
0.0
 70
     32
  0
VERTEX
  8
MY3DLAYER
10
7.25497770235083
20
3.12895564572044
30
0.0
 70
     32
  0
VERTEX
  8
MY3DLAYER
10
7.25497770235083
20
3.12895564572044
30
0.0625
 70
     32
  0
VERTEX
  8
MY3DLAYER
10
7.27220445559877
20
3.12261892573187
30
0.0625
 70
     32
  0
VERTEX
  8
MY3DLAYER
10
7.27220445559877
20
3.12261892573187
30
0.0
 70
     32
  0
SEQEND
  0
POLYLINE
 8
Group#1
 66
     1
70
    8
 10
0.0
 20
 0.0
 30
0.0
  0
VERTEX
  8
MY3DLAYER
10
7.29048428528059
20
3.1209567360668
30
0.0
 70
     32
  0
VERTEX
  8
MY3DLAYER
10
7.27220445559877
20
3.12261892573187
30
0.0
 70
     32
  0
VERTEX
  8
MY3DLAYER
10
7.27220445559877
20
3.12261892573187
30
0.0625
 70
     32
  0
VERTEX
  8
MY3DLAYER
10
7.29048428528059
20
3.1209567360668
30
0.0625
 70
     32
  0
VERTEX
  8
MY3DLAYER
10
7.29048428528059
20
3.1209567360668
30
0.0
 70
     32
  0
SEQEND
  0
POLYLINE
 8
Group#1
 66
     1
70
    8
 10
0.0
 20
 0.0
 30
0.0
  0
VERTEX
  8
MY3DLAYER
10
7.30857145121231
20
3.124082352204
30
0.0
 70
     32
  0
VERTEX
  8
MY3DLAYER
10
7.29048428528059
20
3.1209567360668
30
0.0
 70
     32
  0
VERTEX
  8
MY3DLAYER
10
7.29048428528059
20
3.1209567360668
30
0.0625
 70
     32
  0
VERTEX
  8
MY3DLAYER
10
7.30857145121231
20
3.124082352204
30
0.0625
 70
     32
  0
VERTEX
  8
MY3DLAYER
10
7.30857145121231
20
3.124082352204
30
0.0
 70
     32
  0
SEQEND
  0
POLYLINE
 8
Group#1
 66
     1
70
    8
 10
0.0
 20
 0.0
 30
0.0
  0
VERTEX
  8
MY3DLAYER
10
7.32523334292615
20
3.13178276856904
30
0.0
 70
     32
  0
VERTEX
  8
MY3DLAYER
10
7.30857145121231
20
3.124082352204
30
0.0
 70
     32
  0
VERTEX
  8
MY3DLAYER
10
7.30857145121231
20
3.124082352204
30
0.0625
 70
     32
  0
VERTEX
  8
MY3DLAYER
10
7.32523334292615
20
3.13178276856904
30
0.0625
 70
     32
  0
VERTEX
  8
MY3DLAYER
10
7.32523334292615
20
3.13178276856904
30
0.0
 70
     32
  0
SEQEND
  0
POLYLINE
 8
Group#1
 66
     1
70
    8
 10
0.0
 20
 0.0
 30
0.0
  0
VERTEX
  8
MY3DLAYER
10
7.33933448003689
20
3.1435332145122
30
0.0
 70
     32
  0
VERTEX
  8
MY3DLAYER
10
7.32523334292615
20
3.13178276856904
30
0.0
 70
     32
  0
VERTEX
  8
MY3DLAYER
10
7.32523334292615
20
3.13178276856904
30
0.0625
 70
     32
  0
VERTEX
  8
MY3DLAYER
10
7.33933448003689
20
3.1435332145122
30
0.0625
 70
     32
  0
VERTEX
  8
MY3DLAYER
10
7.33933448003689
20
3.1435332145122
30
0.0
 70
     32
  0
SEQEND
  0
POLYLINE
 8
Group#1
 66
     1
70
    8
 10
0.0
 20
 0.0
 30
0.0
  0
VERTEX
  8
MY3DLAYER
10
6.76153732988933
20
3.75649332335855
30
0.0
 70
     32
  0
VERTEX
  8
MY3DLAYER
10
6.77932329389322
20
3.76102923915705
30
0.0
 70
     32
  0
VERTEX
  8
MY3DLAYER
10
6.77932329389322
20
3.76102923915705
30
0.0625
 70
     32
  0
VERTEX
  8
MY3DLAYER
10
6.76153732988933
20
3.75649332335855
30
0.0625
 70
     32
  0
VERTEX
  8
MY3DLAYER
10
6.76153732988933
20
3.75649332335855
30
0.0
 70
     32
  0
SEQEND
  0
POLYLINE
 8
Group#1
 66
     1
70
    8
 10
0.0
 20
 0.0
 30
0.0
  0
VERTEX
  8
MY3DLAYER
10
6.74553138930815
20
3.74750861892319
30
0.0
 70
     32
  0
VERTEX
  8
MY3DLAYER
10
6.76153732988933
20
3.75649332335855
30
0.0
 70
     32
  0
VERTEX
  8
MY3DLAYER
10
6.76153732988933
20
3.75649332335855
30
0.0625
 70
     32
  0
VERTEX
  8
MY3DLAYER
10
6.74553138930815
20
3.74750861892319
30
0.0625
 70
     32
  0
VERTEX
  8
MY3DLAYER
10
6.74553138930815
20
3.74750861892319
30
0.0
 70
     32
  0
SEQEND
  0
POLYLINE
 8
Group#1
 66
     1
70
    8
 10
0.0
 20
 0.0
 30
0.0
  0
VERTEX
  8
MY3DLAYER
10
6.73239625054923
20
3.73468741861032
30
0.0
 70
     32
  0
VERTEX
  8
MY3DLAYER
10
6.74553138930815
20
3.74750861892319
30
0.0
 70
     32
  0
VERTEX
  8
MY3DLAYER
10
6.74553138930815
20
3.74750861892319
30
0.0625
 70
     32
  0
VERTEX
  8
MY3DLAYER
10
6.73239625054923
20
3.73468741861032
30
0.0625
 70
     32
  0
VERTEX
  8
MY3DLAYER
10
6.73239625054923
20
3.73468741861032
30
0.0
 70
     32
  0
SEQEND
  0
POLYLINE
 8
Group#1
 66
     1
70
    8
 10
0.0
 20
 0.0
 30
0.0
  0
VERTEX
  8
MY3DLAYER
10
6.72302705161215
20
3.71890346603322
30
0.0
 70
     32
  0
VERTEX
  8
MY3DLAYER
10
6.73239625054923
20
3.73468741861032
30
0.0
 70
     32
  0
VERTEX
  8
MY3DLAYER
10
6.73239625054923
20
3.73468741861032
30
0.0625
 70
     32
  0
VERTEX
  8
MY3DLAYER
10
6.72302705161215
20
3.71890346603322
30
0.0625
 70
     32
  0
VERTEX
  8
MY3DLAYER
10
6.72302705161215
20
3.71890346603322
30
0.0
 70
     32
  0
SEQEND
  0
POLYLINE
 8
Group#1
 66
     1
70
    8
 10
0.0
 20
 0.0
 30
0.0
  0
VERTEX
  8
MY3DLAYER
10
6.71806228792113
20
3.7012324114758
30
0.0
 70
     32
  0
VERTEX
  8
MY3DLAYER
10
6.72302705161215
20
3.71890346603322
30
0.0
 70
     32
  0
VERTEX
  8
MY3DLAYER
10
6.72302705161215
20
3.71890346603322
30
0.0625
 70
     32
  0
VERTEX
  8
MY3DLAYER
10
6.71806228792113
20
3.7012324114758
30
0.0625
 70
     32
  0
VERTEX
  8
MY3DLAYER
10
6.71806228792113
20
3.7012324114758
30
0.0
 70
     32
  0
SEQEND
  0
POLYLINE
 8
Group#1
 66
     1
70
    8
 10
0.0
 20
 0.0
 30
0.0
  0
VERTEX
  8
MY3DLAYER
10
6.71784029991705
20
3.68287850810336
30
0.0
 70
     32
  0
VERTEX
  8
MY3DLAYER
10
6.71806228792113
20
3.7012324114758
30
0.0
 70
     32
  0
VERTEX
  8
MY3DLAYER
10
6.71806228792113
20
3.7012324114758
30
0.0625
 70
     32
  0
VERTEX
  8
MY3DLAYER
10
6.71784029991705
20
3.68287850810336
30
0.0625
 70
     32
  0
VERTEX
  8
MY3DLAYER
10
6.71784029991705
20
3.68287850810336
30
0.0
 70
     32
  0
SEQEND
  0
POLYLINE
 8
Group#1
 66
     1
70
    8
 10
0.0
 20
 0.0
 30
0.0
  0
VERTEX
  8
MY3DLAYER
10
6.72237621571555
20
3.66509254409946
30
0.0
 70
     32
  0
VERTEX
  8
MY3DLAYER
10
6.71784029991705
20
3.68287850810336
30
0.0
 70
     32
  0
VERTEX
  8
MY3DLAYER
10
6.71784029991705
20
3.68287850810336
30
0.0625
 70
     32
  0
VERTEX
  8
MY3DLAYER
10
6.72237621571555
20
3.66509254409946
30
0.0625
 70
     32
  0
VERTEX
  8
MY3DLAYER
10
6.72237621571555
20
3.66509254409946
30
0.0
 70
     32
  0
SEQEND
  0
POLYLINE
 8
Group#1
 66
     1
70
    8
 10
0.0
 20
 0.0
 30
0.0
  0
VERTEX
  8
MY3DLAYER
10
6.73136092015091
20
3.64908660351829
30
0.0
 70
     32
  0
VERTEX
  8
MY3DLAYER
10
6.72237621571555
20
3.66509254409946
30
0.0
 70
     32
  0
VERTEX
  8
MY3DLAYER
10
6.72237621571555
20
3.66509254409946
30
0.0625
 70
     32
  0
VERTEX
  8
MY3DLAYER
10
6.73136092015091
20
3.64908660351829
30
0.0625
 70
     32
  0
VERTEX
  8
MY3DLAYER
10
6.73136092015091
20
3.64908660351829
30
0.0
 70
     32
  0
SEQEND
  0
POLYLINE
 8
Group#1
 66
     1
70
    8
 10
0.0
 20
 0.0
 30
0.0
  0
VERTEX
  8
MY3DLAYER
10
6.74418212046378
20
3.63595146475937
30
0.0
 70
     32
  0
VERTEX
  8
MY3DLAYER
10
6.73136092015091
20
3.64908660351829
30
0.0
 70
     32
  0
VERTEX
  8
MY3DLAYER
10
6.73136092015091
20
3.64908660351829
30
0.0625
 70
     32
  0
VERTEX
  8
MY3DLAYER
10
6.74418212046378
20
3.63595146475937
30
0.0625
 70
     32
  0
VERTEX
  8
MY3DLAYER
10
6.74418212046378
20
3.63595146475937
30
0.0
 70
     32
  0
SEQEND
  0
POLYLINE
 8
Group#1
 66
     1
70
    8
 10
0.0
 20
 0.0
 30
0.0
  0
VERTEX
  8
MY3DLAYER
10
6.75996607304088
20
3.62658226582228
30
0.0
 70
     32
  0
VERTEX
  8
MY3DLAYER
10
6.74418212046378
20
3.63595146475937
30
0.0
 70
     32
  0
VERTEX
  8
MY3DLAYER
10
6.74418212046378
20
3.63595146475937
30
0.0625
 70
     32
  0
VERTEX
  8
MY3DLAYER
10
6.75996607304088
20
3.62658226582228
30
0.0625
 70
     32
  0
VERTEX
  8
MY3DLAYER
10
6.75996607304088
20
3.62658226582228
30
0.0
 70
     32
  0
SEQEND
  0
POLYLINE
 8
Group#1
 66
     1
70
    8
 10
0.0
 20
 0.0
 30
0.0
  0
VERTEX
  8
MY3DLAYER
10
6.81377699497464
20
3.62593142992569
30
0.0
 70
     32
  0
VERTEX
  8
MY3DLAYER
10
6.79599103097074
20
3.62139551412719
30
0.0
 70
     32
  0
VERTEX
  8
MY3DLAYER
10
6.79599103097074
20
3.62139551412719
30
0.0625
 70
     32
  0
VERTEX
  8
MY3DLAYER
10
6.81377699497464
20
3.62593142992569
30
0.0625
 70
     32
  0
VERTEX
  8
MY3DLAYER
10
6.81377699497464
20
3.62593142992569
30
0.0
 70
     32
  0
SEQEND
  0
POLYLINE
 8
Group#1
 66
     1
70
    8
 10
0.0
 20
 0.0
 30
0.0
  0
VERTEX
  8
MY3DLAYER
10
6.82978293555581
20
3.63491613436104
30
0.0
 70
     32
  0
VERTEX
  8
MY3DLAYER
10
6.81377699497464
20
3.62593142992569
30
0.0
 70
     32
  0
VERTEX
  8
MY3DLAYER
10
6.81377699497464
20
3.62593142992569
30
0.0625
 70
     32
  0
VERTEX
  8
MY3DLAYER
10
6.82978293555581
20
3.63491613436104
30
0.0625
 70
     32
  0
VERTEX
  8
MY3DLAYER
10
6.82978293555581
20
3.63491613436104
30
0.0
 70
     32
  0
SEQEND
  0
POLYLINE
 8
Group#1
 66
     1
70
    8
 10
0.0
 20
 0.0
 30
0.0
  0
VERTEX
  8
MY3DLAYER
10
6.77932329389322
20
3.76102923915705
30
0.0
 70
     32
  0
VERTEX
  8
MY3DLAYER
10
6.79767719726566
20
3.76080725115297
30
0.0
 70
     32
  0
VERTEX
  8
MY3DLAYER
10
6.79767719726566
20
3.76080725115297
30
0.0625
 70
     32
  0
VERTEX
  8
MY3DLAYER
10
6.77932329389322
20
3.76102923915705
30
0.0625
 70
     32
  0
VERTEX
  8
MY3DLAYER
10
6.77932329389322
20
3.76102923915705
30
0.0
 70
     32
  0
SEQEND
  0
POLYLINE
 8
Group#1
 66
     1
70
    8
 10
0.0
 20
 0.0
 30
0.0
  0
VERTEX
  8
MY3DLAYER
10
7.32281341243198
20
3.75210478784571
30
0.0
 70
     32
  0
VERTEX
  8
MY3DLAYER
10
7.33737560798416
20
3.7409308221943
30
0.0
 70
     32
  0
VERTEX
  8
MY3DLAYER
10
7.33737560798416
20
3.7409308221943
30
0.0625
 70
     32
  0
VERTEX
  8
MY3DLAYER
10
7.32281341243198
20
3.75210478784571
30
0.0625
 70
     32
  0
VERTEX
  8
MY3DLAYER
10
7.32281341243198
20
3.75210478784571
30
0.0
 70
     32
  0
SEQEND
  0
POLYLINE
 8
Group#1
 66
     1
70
    8
 10
0.0
 20
 0.0
 30
0.0
  0
VERTEX
  8
MY3DLAYER
10
7.30585537654075
20
3.75912903630307
30
0.0
 70
     32
  0
VERTEX
  8
MY3DLAYER
10
7.32281341243198
20
3.75210478784571
30
0.0
 70
     32
  0
VERTEX
  8
MY3DLAYER
10
7.32281341243198
20
3.75210478784571
30
0.0625
 70
     32
  0
VERTEX
  8
MY3DLAYER
10
7.30585537654075
20
3.75912903630307
30
0.0625
 70
     32
  0
VERTEX
  8
MY3DLAYER
10
7.30585537654075
20
3.75912903630307
30
0.0
 70
     32
  0
SEQEND
  0
POLYLINE
 8
Group#1
 66
     1
70
    8
 10
0.0
 20
 0.0
 30
0.0
  0
VERTEX
  8
MY3DLAYER
10
7.28765716243198
20
3.76152487664212
30
0.0
 70
     32
  0
VERTEX
  8
MY3DLAYER
10
7.30585537654075
20
3.75912903630307
30
0.0
 70
     32
  0
VERTEX
  8
MY3DLAYER
10
7.30585537654075
20
3.75912903630307
30
0.0625
 70
     32
  0
VERTEX
  8
MY3DLAYER
10
7.28765716243198
20
3.76152487664212
30
0.0625
 70
     32
  0
VERTEX
  8
MY3DLAYER
10
7.28765716243198
20
3.76152487664212
30
0.0
 70
     32
  0
SEQEND
  0
POLYLINE
 8
Group#1
 66
     1
70
    8
 10
0.0
 20
 0.0
 30
0.0
  0
VERTEX
  8
MY3DLAYER
10
7.26945894832321
20
3.75912903630307
30
0.0
 70
     32
  0
VERTEX
  8
MY3DLAYER
10
7.28765716243198
20
3.76152487664212
30
0.0
 70
     32
  0
VERTEX
  8
MY3DLAYER
10
7.28765716243198
20
3.76152487664212
30
0.0625
 70
     32
  0
VERTEX
  8
MY3DLAYER
10
7.26945894832321
20
3.75912903630307
30
0.0625
 70
     32
  0
VERTEX
  8
MY3DLAYER
10
7.26945894832321
20
3.75912903630307
30
0.0
 70
     32
  0
SEQEND
  0
POLYLINE
 8
Group#1
 66
     1
70
    8
 10
0.0
 20
 0.0
 30
0.0
  0
VERTEX
  8
MY3DLAYER
10
7.25250091243198
20
3.75210478784571
30
0.0
 70
     32
  0
VERTEX
  8
MY3DLAYER
10
7.26945894832321
20
3.75912903630307
30
0.0
 70
     32
  0
VERTEX
  8
MY3DLAYER
10
7.26945894832321
20
3.75912903630307
30
0.0625
 70
     32
  0
VERTEX
  8
MY3DLAYER
10
7.25250091243198
20
3.75210478784571
30
0.0625
 70
     32
  0
VERTEX
  8
MY3DLAYER
10
7.25250091243198
20
3.75210478784571
30
0.0
 70
     32
  0
SEQEND
  0
POLYLINE
 8
Group#1
 66
     1
70
    8
 10
0.0
 20
 0.0
 30
0.0
  0
VERTEX
  8
MY3DLAYER
10
7.2379387168798
20
3.7409308221943
30
0.0
 70
     32
  0
VERTEX
  8
MY3DLAYER
10
7.25250091243198
20
3.75210478784571
30
0.0
 70
     32
  0
VERTEX
  8
MY3DLAYER
10
7.25250091243198
20
3.75210478784571
30
0.0625
 70
     32
  0
VERTEX
  8
MY3DLAYER
10
7.2379387168798
20
3.7409308221943
30
0.0625
 70
     32
  0
VERTEX
  8
MY3DLAYER
10
7.2379387168798
20
3.7409308221943
30
0.0
 70
     32
  0
SEQEND
  0
POLYLINE
 8
Group#1
 66
     1
70
    8
 10
0.0
 20
 0.0
 30
0.0
  0
VERTEX
  8
MY3DLAYER
10
7.22676475122839
20
3.72636862664212
30
0.0
 70
     32
  0
VERTEX
  8
MY3DLAYER
10
7.2379387168798
20
3.7409308221943
30
0.0
 70
     32
  0
VERTEX
  8
MY3DLAYER
10
7.2379387168798
20
3.7409308221943
30
0.0625
 70
     32
  0
VERTEX
  8
MY3DLAYER
10
7.22676475122839
20
3.72636862664212
30
0.0625
 70
     32
  0
VERTEX
  8
MY3DLAYER
10
7.22676475122839
20
3.72636862664212
30
0.0
 70
     32
  0
SEQEND
  0
POLYLINE
 8
Group#1
 66
     1
70
    8
 10
0.0
 20
 0.0
 30
0.0
  0
VERTEX
  8
MY3DLAYER
10
7.21974050277103
20
3.70941059075089
30
0.0
 70
     32
  0
VERTEX
  8
MY3DLAYER
10
7.22676475122839
20
3.72636862664212
30
0.0
 70
     32
  0
VERTEX
  8
MY3DLAYER
10
7.22676475122839
20
3.72636862664212
30
0.0625
 70
     32
  0
VERTEX
  8
MY3DLAYER
10
7.21974050277103
20
3.70941059075089
30
0.0625
 70
     32
  0
VERTEX
  8
MY3DLAYER
10
7.21974050277103
20
3.70941059075089
30
0.0
 70
     32
  0
SEQEND
  0
POLYLINE
 8
Group#1
 66
     1
70
    8
 10
0.0
 20
 0.0
 30
0.0
  0
VERTEX
  8
MY3DLAYER
10
7.21734466243198
20
3.69121237664212
30
0.0
 70
     32
  0
VERTEX
  8
MY3DLAYER
10
7.21974050277103
20
3.70941059075089
30
0.0
 70
     32
  0
VERTEX
  8
MY3DLAYER
10
7.21974050277103
20
3.70941059075089
30
0.0625
 70
     32
  0
VERTEX
  8
MY3DLAYER
10
7.21734466243198
20
3.69121237664212
30
0.0625
 70
     32
  0
VERTEX
  8
MY3DLAYER
10
7.21734466243198
20
3.69121237664212
30
0.0
 70
     32
  0
SEQEND
  0
POLYLINE
 8
Group#1
 66
     1
70
    8
 10
0.0
 20
 0.0
 30
0.0
  0
VERTEX
  8
MY3DLAYER
10
7.21974050277103
20
3.67301416253335
30
0.0
 70
     32
  0
VERTEX
  8
MY3DLAYER
10
7.21734466243198
20
3.69121237664212
30
0.0
 70
     32
  0
VERTEX
  8
MY3DLAYER
10
7.21734466243198
20
3.69121237664212
30
0.0625
 70
     32
  0
VERTEX
  8
MY3DLAYER
10
7.21974050277103
20
3.67301416253335
30
0.0625
 70
     32
  0
VERTEX
  8
MY3DLAYER
10
7.21974050277103
20
3.67301416253335
30
0.0
 70
     32
  0
SEQEND
  0
POLYLINE
 8
Group#1
 66
     1
70
    8
 10
0.0
 20
 0.0
 30
0.0
  0
VERTEX
  8
MY3DLAYER
10
7.22676475122839
20
3.65605612664212
30
0.0
 70
     32
  0
VERTEX
  8
MY3DLAYER
10
7.21974050277103
20
3.67301416253335
30
0.0
 70
     32
  0
VERTEX
  8
MY3DLAYER
10
7.21974050277103
20
3.67301416253335
30
0.0625
 70
     32
  0
VERTEX
  8
MY3DLAYER
10
7.22676475122839
20
3.65605612664212
30
0.0625
 70
     32
  0
VERTEX
  8
MY3DLAYER
10
7.22676475122839
20
3.65605612664212
30
0.0
 70
     32
  0
SEQEND
  0
POLYLINE
 8
Group#1
 66
     1
70
    8
 10
0.0
 20
 0.0
 30
0.0
  0
VERTEX
  8
MY3DLAYER
10
7.2379387168798
20
3.64149393108994
30
0.0
 70
     32
  0
VERTEX
  8
MY3DLAYER
10
7.22676475122839
20
3.65605612664212
30
0.0
 70
     32
  0
VERTEX
  8
MY3DLAYER
10
7.22676475122839
20
3.65605612664212
30
0.0625
 70
     32
  0
VERTEX
  8
MY3DLAYER
10
7.2379387168798
20
3.64149393108994
30
0.0625
 70
     32
  0
VERTEX
  8
MY3DLAYER
10
7.2379387168798
20
3.64149393108994
30
0.0
 70
     32
  0
SEQEND
  0
POLYLINE
 8
Group#1
 66
     1
70
    8
 10
0.0
 20
 0.0
 30
0.0
  0
VERTEX
  8
MY3DLAYER
10
7.25250091243198
20
3.63031996543853
30
0.0
 70
     32
  0
VERTEX
  8
MY3DLAYER
10
7.2379387168798
20
3.64149393108994
30
0.0
 70
     32
  0
VERTEX
  8
MY3DLAYER
10
7.2379387168798
20
3.64149393108994
30
0.0625
 70
     32
  0
VERTEX
  8
MY3DLAYER
10
7.25250091243198
20
3.63031996543853
30
0.0625
 70
     32
  0
VERTEX
  8
MY3DLAYER
10
7.25250091243198
20
3.63031996543853
30
0.0
 70
     32
  0
SEQEND
  0
POLYLINE
 8
Group#1
 66
     1
70
    8
 10
0.0
 20
 0.0
 30
0.0
  0
VERTEX
  8
MY3DLAYER
10
7.26945894832321
20
3.62329571698117
30
0.0
 70
     32
  0
VERTEX
  8
MY3DLAYER
10
7.25250091243198
20
3.63031996543853
30
0.0
 70
     32
  0
VERTEX
  8
MY3DLAYER
10
7.25250091243198
20
3.63031996543853
30
0.0625
 70
     32
  0
VERTEX
  8
MY3DLAYER
10
7.26945894832321
20
3.62329571698117
30
0.0625
 70
     32
  0
VERTEX
  8
MY3DLAYER
10
7.26945894832321
20
3.62329571698117
30
0.0
 70
     32
  0
SEQEND
  0
POLYLINE
 8
Group#1
 66
     1
70
    8
 10
0.0
 20
 0.0
 30
0.0
  0
VERTEX
  8
MY3DLAYER
10
7.28765716243198
20
3.62089987664212
30
0.0
 70
     32
  0
VERTEX
  8
MY3DLAYER
10
7.26945894832321
20
3.62329571698117
30
0.0
 70
     32
  0
VERTEX
  8
MY3DLAYER
10
7.26945894832321
20
3.62329571698117
30
0.0625
 70
     32
  0
VERTEX
  8
MY3DLAYER
10
7.28765716243198
20
3.62089987664212
30
0.0625
 70
     32
  0
VERTEX
  8
MY3DLAYER
10
7.28765716243198
20
3.62089987664212
30
0.0
 70
     32
  0
SEQEND
  0
POLYLINE
 8
Group#1
 66
     1
70
    8
 10
0.0
 20
 0.0
 30
0.0
  0
VERTEX
  8
MY3DLAYER
10
7.30585537654075
20
3.62329571698117
30
0.0
 70
     32
  0
VERTEX
  8
MY3DLAYER
10
7.28765716243198
20
3.62089987664212
30
0.0
 70
     32
  0
VERTEX
  8
MY3DLAYER
10
7.28765716243198
20
3.62089987664212
30
0.0625
 70
     32
  0
VERTEX
  8
MY3DLAYER
10
7.30585537654075
20
3.62329571698117
30
0.0625
 70
     32
  0
VERTEX
  8
MY3DLAYER
10
7.30585537654075
20
3.62329571698117
30
0.0
 70
     32
  0
SEQEND
  0
POLYLINE
 8
Group#1
 66
     1
70
    8
 10
0.0
 20
 0.0
 30
0.0
  0
VERTEX
  8
MY3DLAYER
10
7.32281341243198
20
3.63031996543853
30
0.0
 70
     32
  0
VERTEX
  8
MY3DLAYER
10
7.30585537654075
20
3.62329571698117
30
0.0
 70
     32
  0
VERTEX
  8
MY3DLAYER
10
7.30585537654075
20
3.62329571698117
30
0.0625
 70
     32
  0
VERTEX
  8
MY3DLAYER
10
7.32281341243198
20
3.63031996543853
30
0.0625
 70
     32
  0
VERTEX
  8
MY3DLAYER
10
7.32281341243198
20
3.63031996543853
30
0.0
 70
     32
  0
SEQEND
  0
POLYLINE
 8
Group#1
 66
     1
70
    8
 10
0.0
 20
 0.0
 30
0.0
  0
VERTEX
  8
MY3DLAYER
10
7.33737560798416
20
3.64149393108994
30
0.0
 70
     32
  0
VERTEX
  8
MY3DLAYER
10
7.32281341243198
20
3.63031996543853
30
0.0
 70
     32
  0
VERTEX
  8
MY3DLAYER
10
7.32281341243198
20
3.63031996543853
30
0.0625
 70
     32
  0
VERTEX
  8
MY3DLAYER
10
7.33737560798416
20
3.64149393108994
30
0.0625
 70
     32
  0
VERTEX
  8
MY3DLAYER
10
7.33737560798416
20
3.64149393108994
30
0.0
 70
     32
  0
SEQEND
  0
POLYLINE
 8
Group#1
 66
     1
70
    8
 10
0.0
 20
 0.0
 30
0.0
  0
VERTEX
  8
MY3DLAYER
10
7.34854957363557
20
3.65605612664212
30
0.0
 70
     32
  0
VERTEX
  8
MY3DLAYER
10
7.33737560798416
20
3.64149393108994
30
0.0
 70
     32
  0
VERTEX
  8
MY3DLAYER
10
7.33737560798416
20
3.64149393108994
30
0.0625
 70
     32
  0
VERTEX
  8
MY3DLAYER
10
7.34854957363557
20
3.65605612664212
30
0.0625
 70
     32
  0
VERTEX
  8
MY3DLAYER
10
7.34854957363557
20
3.65605612664212
30
0.0
 70
     32
  0
SEQEND
  0
POLYLINE
 8
Group#1
 66
     1
70
    8
 10
0.0
 20
 0.0
 30
0.0
  0
VERTEX
  8
MY3DLAYER
10
7.35557382209293
20
3.67301416253335
30
0.0
 70
     32
  0
VERTEX
  8
MY3DLAYER
10
7.34854957363557
20
3.65605612664212
30
0.0
 70
     32
  0
VERTEX
  8
MY3DLAYER
10
7.34854957363557
20
3.65605612664212
30
0.0625
 70
     32
  0
VERTEX
  8
MY3DLAYER
10
7.35557382209293
20
3.67301416253335
30
0.0625
 70
     32
  0
VERTEX
  8
MY3DLAYER
10
7.35557382209293
20
3.67301416253335
30
0.0
 70
     32
  0
SEQEND
  0
POLYLINE
 8
Group#1
 66
     1
70
    8
 10
0.0
 20
 0.0
 30
0.0
  0
VERTEX
  8
MY3DLAYER
10
6.85557382209293
20
4.17301416253335
30
0.0
 70
     32
  0
VERTEX
  8
MY3DLAYER
10
6.84854957363557
20
4.15605612664212
30
0.0
 70
     32
  0
VERTEX
  8
MY3DLAYER
10
6.84854957363557
20
4.15605612664212
30
0.0625
 70
     32
  0
VERTEX
  8
MY3DLAYER
10
6.85557382209293
20
4.17301416253335
30
0.0625
 70
     32
  0
VERTEX
  8
MY3DLAYER
10
6.85557382209293
20
4.17301416253335
30
0.0
 70
     32
  0
SEQEND
  0
POLYLINE
 8
Group#1
 66
     1
70
    8
 10
0.0
 20
 0.0
 30
0.0
  0
VERTEX
  8
MY3DLAYER
10
6.85796966243198
20
4.19121237664212
30
0.0
 70
     32
  0
VERTEX
  8
MY3DLAYER
10
6.85557382209293
20
4.17301416253335
30
0.0
 70
     32
  0
VERTEX
  8
MY3DLAYER
10
6.85557382209293
20
4.17301416253335
30
0.0625
 70
     32
  0
VERTEX
  8
MY3DLAYER
10
6.85796966243198
20
4.19121237664212
30
0.0625
 70
     32
  0
VERTEX
  8
MY3DLAYER
10
6.85796966243198
20
4.19121237664212
30
0.0
 70
     32
  0
SEQEND
  0
POLYLINE
 8
Group#1
 66
     1
70
    8
 10
0.0
 20
 0.0
 30
0.0
  0
VERTEX
  8
MY3DLAYER
10
7.20631143406782
20
4.5231390918148
30
0.0
 70
     32
  0
VERTEX
  8
MY3DLAYER
10
7.22176887330839
20
4.4766965691532
30
0.0
 70
     32
  0
VERTEX
  8
MY3DLAYER
10
7.22176887330839
20
4.4766965691532
30
0.0625
 70
     32
  0
VERTEX
  8
MY3DLAYER
10
7.20631143406782
20
4.5231390918148
30
0.0625
 70
     32
  0
VERTEX
  8
MY3DLAYER
10
7.20631143406782
20
4.5231390918148
30
0.0
 70
     32
  0
SEQEND
  0
POLYLINE
 8
Group#1
 66
     1
70
    8
 10
0.0
 20
 0.0
 30
0.0
  0
VERTEX
  8
MY3DLAYER
10
6.83737560798416
20
4.14149393108994
30
0.0
 70
     32
  0
VERTEX
  8
MY3DLAYER
10
6.82281341243198
20
4.13031996543853
30
0.0
 70
     32
  0
VERTEX
  8
MY3DLAYER
10
6.82281341243198
20
4.13031996543853
30
0.0625
 70
     32
  0
VERTEX
  8
MY3DLAYER
10
6.83737560798416
20
4.14149393108994
30
0.0625
 70
     32
  0
VERTEX
  8
MY3DLAYER
10
6.83737560798416
20
4.14149393108994
30
0.0
 70
     32
  0
SEQEND
  0
POLYLINE
 8
Group#1
 66
     1
70
    8
 10
0.0
 20
 0.0
 30
0.0
  0
VERTEX
  8
MY3DLAYER
10
6.84854957363557
20
4.15605612664212
30
0.0
 70
     32
  0
VERTEX
  8
MY3DLAYER
10
6.83737560798416
20
4.14149393108994
30
0.0
 70
     32
  0
VERTEX
  8
MY3DLAYER
10
6.83737560798416
20
4.14149393108994
30
0.0625
 70
     32
  0
VERTEX
  8
MY3DLAYER
10
6.84854957363557
20
4.15605612664212
30
0.0625
 70
     32
  0
VERTEX
  8
MY3DLAYER
10
6.84854957363557
20
4.15605612664212
30
0.0
 70
     32
  0
SEQEND
  0
POLYLINE
 8
Group#1
 66
     1
70
    8
 10
0.0
 20
 0.0
 30
0.0
  0
VERTEX
  8
MY3DLAYER
10
7.26187621472633
20
4.25662789767229
30
0.0
 70
     32
  0
VERTEX
  8
MY3DLAYER
10
7.2796854619048
20
4.26107151811233
30
0.0
 70
     32
  0
VERTEX
  8
MY3DLAYER
10
7.2796854619048
20
4.26107151811233
30
0.0625
 70
     32
  0
VERTEX
  8
MY3DLAYER
10
7.26187621472633
20
4.25662789767229
30
0.0625
 70
     32
  0
VERTEX
  8
MY3DLAYER
10
7.26187621472633
20
4.25662789767229
30
0.0
 70
     32
  0
SEQEND
  0
POLYLINE
 8
Group#1
 66
     1
70
    8
 10
0.0
 20
 0.0
 30
0.0
  0
VERTEX
  8
MY3DLAYER
10
7.24582389652897
20
4.2477263175783
30
0.0
 70
     32
  0
VERTEX
  8
MY3DLAYER
10
7.26187621472633
20
4.25662789767229
30
0.0
 70
     32
  0
VERTEX
  8
MY3DLAYER
10
7.26187621472633
20
4.25662789767229
30
0.0625
 70
     32
  0
VERTEX
  8
MY3DLAYER
10
7.24582389652897
20
4.2477263175783
30
0.0625
 70
     32
  0
VERTEX
  8
MY3DLAYER
10
7.24582389652897
20
4.2477263175783
30
0.0
 70
     32
  0
SEQEND
  0
POLYLINE
 8
Group#1
 66
     1
70
    8
 10
0.0
 20
 0.0
 30
0.0
  0
VERTEX
  8
MY3DLAYER
10
6.72676475122839
20
4.22636862664212
30
0.0
 70
     32
  0
VERTEX
  8
MY3DLAYER
10
6.7379387168798
20
4.2409308221943
30
0.0
 70
     32
  0
VERTEX
  8
MY3DLAYER
10
6.7379387168798
20
4.2409308221943
30
0.0625
 70
     32
  0
VERTEX
  8
MY3DLAYER
10
6.72676475122839
20
4.22636862664212
30
0.0625
 70
     32
  0
VERTEX
  8
MY3DLAYER
10
6.72676475122839
20
4.22636862664212
30
0.0
 70
     32
  0
SEQEND
  0
POLYLINE
 8
Group#1
 66
     1
70
    8
 10
0.0
 20
 0.0
 30
0.0
  0
VERTEX
  8
MY3DLAYER
10
6.77660098440903
20
3.12177457293423
30
0.0
 70
     32
  0
VERTEX
  8
MY3DLAYER
10
6.75900588848987
20
3.12700215815827
30
0.0
 70
     32
  0
VERTEX
  8
MY3DLAYER
10
6.75900588848987
20
3.12700215815827
30
0.0625
 70
     32
  0
VERTEX
  8
MY3DLAYER
10
6.77660098440903
20
3.12177457293423
30
0.0625
 70
     32
  0
VERTEX
  8
MY3DLAYER
10
6.77660098440903
20
3.12177457293423
30
0.0
 70
     32
  0
SEQEND
  0
POLYLINE
 8
Group#1
 66
     1
70
    8
 10
0.0
 20
 0.0
 30
0.0
  0
VERTEX
  8
MY3DLAYER
10
6.79494954058925
20
3.1212790592815
30
0.0
 70
     32
  0
VERTEX
  8
MY3DLAYER
10
6.77660098440903
20
3.12177457293423
30
0.0
 70
     32
  0
VERTEX
  8
MY3DLAYER
10
6.77660098440903
20
3.12177457293423
30
0.0625
 70
     32
  0
VERTEX
  8
MY3DLAYER
10
6.79494954058925
20
3.1212790592815
30
0.0625
 70
     32
  0
VERTEX
  8
MY3DLAYER
10
6.79494954058925
20
3.1212790592815
30
0.0
 70
     32
  0
SEQEND
  0
POLYLINE
 8
Group#1
 66
     1
70
    8
 10
0.0
 20
 0.0
 30
0.0
  0
VERTEX
  8
MY3DLAYER
10
7.28765716243198
20
4.84297507853434
30
0.0
 70
     32
  0
VERTEX
  8
MY3DLAYER
10
7.16706668498324
20
4.89292528978665
30
0.0
 70
     32
  0
VERTEX
  8
MY3DLAYER
10
7.16706668498324
20
4.89292528978665
30
0.0625
 70
     32
  0
VERTEX
  8
MY3DLAYER
10
7.28765716243198
20
4.84297507853434
30
0.0625
 70
     32
  0
VERTEX
  8
MY3DLAYER
10
7.28765716243198
20
4.84297507853434
30
0.0
 70
     32
  0
SEQEND
  0
POLYLINE
 8
Group#1
 66
     1
70
    8
 10
0.0
 20
 0.0
 30
0.0
  0
VERTEX
  8
MY3DLAYER
10
7.39121055302526
20
4.76351576723539
30
0.0
 70
     32
  0
VERTEX
  8
MY3DLAYER
10
7.28765716243198
20
4.84297507853434
30
0.0
 70
     32
  0
VERTEX
  8
MY3DLAYER
10
7.28765716243198
20
4.84297507853434
30
0.0625
 70
     32
  0
VERTEX
  8
MY3DLAYER
10
7.39121055302526
20
4.76351576723539
30
0.0625
 70
     32
  0
VERTEX
  8
MY3DLAYER
10
7.39121055302526
20
4.76351576723539
30
0.0
 70
     32
  0
SEQEND
  0
POLYLINE
 8
Group#1
 66
     1
70
    8
 10
0.0
 20
 0.0
 30
0.0
  0
VERTEX
  8
MY3DLAYER
10
6.80585537654075
20
4.25912903630307
30
0.0
 70
     32
  0
VERTEX
  8
MY3DLAYER
10
6.82281341243198
20
4.25210478784571
30
0.0
 70
     32
  0
VERTEX
  8
MY3DLAYER
10
6.82281341243198
20
4.25210478784571
30
0.0625
 70
     32
  0
VERTEX
  8
MY3DLAYER
10
6.80585537654075
20
4.25912903630307
30
0.0625
 70
     32
  0
VERTEX
  8
MY3DLAYER
10
6.80585537654075
20
4.25912903630307
30
0.0
 70
     32
  0
SEQEND
  0
POLYLINE
 8
Group#1
 66
     1
70
    8
 10
0.0
 20
 0.0
 30
0.0
  0
VERTEX
  8
MY3DLAYER
10
6.78765716243198
20
4.26152487664212
30
0.0
 70
     32
  0
VERTEX
  8
MY3DLAYER
10
6.80585537654075
20
4.25912903630307
30
0.0
 70
     32
  0
VERTEX
  8
MY3DLAYER
10
6.80585537654075
20
4.25912903630307
30
0.0625
 70
     32
  0
VERTEX
  8
MY3DLAYER
10
6.78765716243198
20
4.26152487664212
30
0.0625
 70
     32
  0
VERTEX
  8
MY3DLAYER
10
6.78765716243198
20
4.26152487664212
30
0.0
 70
     32
  0
SEQEND
  0
POLYLINE
 8
Group#1
 66
     1
70
    8
 10
0.0
 20
 0.0
 30
0.0
  0
VERTEX
  8
MY3DLAYER
10
6.76945894832321
20
4.25912903630307
30
0.0
 70
     32
  0
VERTEX
  8
MY3DLAYER
10
6.78765716243198
20
4.26152487664212
30
0.0
 70
     32
  0
VERTEX
  8
MY3DLAYER
10
6.78765716243198
20
4.26152487664212
30
0.0625
 70
     32
  0
VERTEX
  8
MY3DLAYER
10
6.76945894832321
20
4.25912903630307
30
0.0625
 70
     32
  0
VERTEX
  8
MY3DLAYER
10
6.76945894832321
20
4.25912903630307
30
0.0
 70
     32
  0
SEQEND
  0
POLYLINE
 8
Group#1
 66
     1
70
    8
 10
0.0
 20
 0.0
 30
0.0
  0
VERTEX
  8
MY3DLAYER
10
6.75250091243198
20
4.25210478784571
30
0.0
 70
     32
  0
VERTEX
  8
MY3DLAYER
10
6.76945894832321
20
4.25912903630307
30
0.0
 70
     32
  0
VERTEX
  8
MY3DLAYER
10
6.76945894832321
20
4.25912903630307
30
0.0625
 70
     32
  0
VERTEX
  8
MY3DLAYER
10
6.75250091243198
20
4.25210478784571
30
0.0625
 70
     32
  0
VERTEX
  8
MY3DLAYER
10
6.75250091243198
20
4.25210478784571
30
0.0
 70
     32
  0
SEQEND
  0
POLYLINE
 8
Group#1
 66
     1
70
    8
 10
0.0
 20
 0.0
 30
0.0
  0
VERTEX
  8
MY3DLAYER
10
6.7379387168798
20
4.2409308221943
30
0.0
 70
     32
  0
VERTEX
  8
MY3DLAYER
10
6.75250091243198
20
4.25210478784571
30
0.0
 70
     32
  0
VERTEX
  8
MY3DLAYER
10
6.75250091243198
20
4.25210478784571
30
0.0625
 70
     32
  0
VERTEX
  8
MY3DLAYER
10
6.7379387168798
20
4.2409308221943
30
0.0625
 70
     32
  0
VERTEX
  8
MY3DLAYER
10
6.7379387168798
20
4.2409308221943
30
0.0
 70
     32
  0
SEQEND
  0
POLYLINE
 8
Group#1
 66
     1
70
    8
 10
0.0
 20
 0.0
 30
0.0
  0
VERTEX
  8
MY3DLAYER
10
6.85354545155558
20
4.40572818413104
30
0.0
 70
     32
  0
VERTEX
  8
MY3DLAYER
10
6.85063492115225
20
4.45458889587188
30
0.0
 70
     32
  0
VERTEX
  8
MY3DLAYER
10
6.85063492115225
20
4.45458889587188
30
0.0625
 70
     32
  0
VERTEX
  8
MY3DLAYER
10
6.85354545155558
20
4.40572818413104
30
0.0625
 70
     32
  0
VERTEX
  8
MY3DLAYER
10
6.85354545155558
20
4.40572818413104
30
0.0
 70
     32
  0
SEQEND
  0
POLYLINE
 8
Group#1
 66
     1
70
    8
 10
0.0
 20
 0.0
 30
0.0
  0
VERTEX
  8
MY3DLAYER
10
7.53765716243198
20
2.94121237664212
30
0.0
 70
     32
  0
VERTEX
  8
MY3DLAYER
10
7.53765716243198
20
4.40996237664212
30
0.0
 70
     32
  0
VERTEX
  8
MY3DLAYER
10
7.53765716243198
20
4.40996237664212
30
0.0625
 70
     32
  0
VERTEX
  8
MY3DLAYER
10
7.53765716243198
20
2.94121237664212
30
0.0625
 70
     32
  0
VERTEX
  8
MY3DLAYER
10
7.53765716243198
20
2.94121237664212
30
0.0
 70
     32
  0
SEQEND
  0
POLYLINE
 8
Group#1
 66
     1
70
    8
 10
0.0
 20
 0.0
 30
0.0
  0
VERTEX
  8
MY3DLAYER
10
7.16706668498324
20
4.89292528978665
30
0.0
 70
     32
  0
VERTEX
  8
MY3DLAYER
10
7.03765716243198
20
4.90996237664212
30
0.0
 70
     32
  0
VERTEX
  8
MY3DLAYER
10
7.03765716243198
20
4.90996237664212
30
0.0625
 70
     32
  0
VERTEX
  8
MY3DLAYER
10
7.16706668498324
20
4.89292528978665
30
0.0625
 70
     32
  0
VERTEX
  8
MY3DLAYER
10
7.16706668498324
20
4.89292528978665
30
0.0
 70
     32
  0
SEQEND
  0
POLYLINE
 8
Group#1
 66
     1
70
    8
 10
0.0
 20
 0.0
 30
0.0
  0
VERTEX
  8
MY3DLAYER
10
7.03765716243198
20
4.90996237664212
30
0.0
 70
     32
  0
VERTEX
  8
MY3DLAYER
10
6.90824763988072
20
4.89292528978665
30
0.0
 70
     32
  0
VERTEX
  8
MY3DLAYER
10
6.90824763988072
20
4.89292528978665
30
0.0625
 70
     32
  0
VERTEX
  8
MY3DLAYER
10
7.03765716243198
20
4.90996237664212
30
0.0625
 70
     32
  0
VERTEX
  8
MY3DLAYER
10
7.03765716243198
20
4.90996237664212
30
0.0
 70
     32
  0
SEQEND
  0
POLYLINE
 8
Group#1
 66
     1
70
    8
 10
0.0
 20
 0.0
 30
0.0
  0
VERTEX
  8
MY3DLAYER
10
6.82281341243198
20
4.25210478784571
30
0.0
 70
     32
  0
VERTEX
  8
MY3DLAYER
10
6.83737560798416
20
4.2409308221943
30
0.0
 70
     32
  0
VERTEX
  8
MY3DLAYER
10
6.83737560798416
20
4.2409308221943
30
0.0625
 70
     32
  0
VERTEX
  8
MY3DLAYER
10
6.82281341243198
20
4.25210478784571
30
0.0625
 70
     32
  0
VERTEX
  8
MY3DLAYER
10
6.82281341243198
20
4.25210478784571
30
0.0
 70
     32
  0
SEQEND
  0
POLYLINE
 8
Group#1
 66
     1
70
    8
 10
0.0
 20
 0.0
 30
0.0
  0
VERTEX
  8
MY3DLAYER
10
7.29803796730033
20
4.26075435350887
30
0.0
 70
     32
  0
VERTEX
  8
MY3DLAYER
10
7.31568303799918
20
4.25569801810548
30
0.0
 70
     32
  0
VERTEX
  8
MY3DLAYER
10
7.31568303799918
20
4.25569801810548
30
0.0625
 70
     32
  0
VERTEX
  8
MY3DLAYER
10
7.29803796730033
20
4.26075435350887
30
0.0625
 70
     32
  0
VERTEX
  8
MY3DLAYER
10
7.29803796730033
20
4.26075435350887
30
0.0
 70
     32
  0
SEQEND
  0
POLYLINE
 8
Group#1
 66
     1
70
    8
 10
0.0
 20
 0.0
 30
0.0
  0
VERTEX
  8
MY3DLAYER
10
7.2796854619048
20
4.26107151811233
30
0.0
 70
     32
  0
VERTEX
  8
MY3DLAYER
10
7.29803796730033
20
4.26075435350887
30
0.0
 70
     32
  0
VERTEX
  8
MY3DLAYER
10
7.29803796730033
20
4.26075435350887
30
0.0625
 70
     32
  0
VERTEX
  8
MY3DLAYER
10
7.2796854619048
20
4.26107151811233
30
0.0625
 70
     32
  0
VERTEX
  8
MY3DLAYER
10
7.2796854619048
20
4.26107151811233
30
0.0
 70
     32
  0
SEQEND
  0
POLYLINE
 8
Group#1
 66
     1
70
    8
 10
0.0
 20
 0.0
 30
0.0
  0
VERTEX
  8
MY3DLAYER
10
6.90824763988072
20
4.89292528978665
30
0.0
 70
     32
  0
VERTEX
  8
MY3DLAYER
10
6.78765716243198
20
4.84297507853434
30
0.0
 70
     32
  0
VERTEX
  8
MY3DLAYER
10
6.78765716243198
20
4.84297507853434
30
0.0625
 70
     32
  0
VERTEX
  8
MY3DLAYER
10
6.90824763988072
20
4.89292528978665
30
0.0625
 70
     32
  0
VERTEX
  8
MY3DLAYER
10
6.90824763988072
20
4.89292528978665
30
0.0
 70
     32
  0
SEQEND
  0
POLYLINE
 8
Group#1
 66
     1
70
    8
 10
0.0
 20
 0.0
 30
0.0
  0
VERTEX
  8
MY3DLAYER
10
6.71974050277103
20
4.20941059075089
30
0.0
 70
     32
  0
VERTEX
  8
MY3DLAYER
10
6.72676475122839
20
4.22636862664212
30
0.0
 70
     32
  0
VERTEX
  8
MY3DLAYER
10
6.72676475122839
20
4.22636862664212
30
0.0625
 70
     32
  0
VERTEX
  8
MY3DLAYER
10
6.71974050277103
20
4.20941059075089
30
0.0625
 70
     32
  0
VERTEX
  8
MY3DLAYER
10
6.71974050277103
20
4.20941059075089
30
0.0
 70
     32
  0
SEQEND
  0
POLYLINE
 8
Group#1
 66
     1
70
    8
 10
0.0
 20
 0.0
 30
0.0
  0
VERTEX
  8
MY3DLAYER
10
6.71734466243198
20
4.19121237664212
30
0.0
 70
     32
  0
VERTEX
  8
MY3DLAYER
10
6.71974050277103
20
4.20941059075089
30
0.0
 70
     32
  0
VERTEX
  8
MY3DLAYER
10
6.71974050277103
20
4.20941059075089
30
0.0625
 70
     32
  0
VERTEX
  8
MY3DLAYER
10
6.71734466243198
20
4.19121237664212
30
0.0625
 70
     32
  0
VERTEX
  8
MY3DLAYER
10
6.71734466243198
20
4.19121237664212
30
0.0
 70
     32
  0
SEQEND
  0
POLYLINE
 8
Group#1
 66
     1
70
    8
 10
0.0
 20
 0.0
 30
0.0
  0
VERTEX
  8
MY3DLAYER
10
6.71974050277103
20
4.17301416253335
30
0.0
 70
     32
  0
VERTEX
  8
MY3DLAYER
10
6.71734466243198
20
4.19121237664212
30
0.0
 70
     32
  0
VERTEX
  8
MY3DLAYER
10
6.71734466243198
20
4.19121237664212
30
0.0625
 70
     32
  0
VERTEX
  8
MY3DLAYER
10
6.71974050277103
20
4.17301416253335
30
0.0625
 70
     32
  0
VERTEX
  8
MY3DLAYER
10
6.71974050277103
20
4.17301416253335
30
0.0
 70
     32
  0
SEQEND
  0
POLYLINE
 8
Group#1
 66
     1
70
    8
 10
0.0
 20
 0.0
 30
0.0
  0
VERTEX
  8
MY3DLAYER
10
6.72676475122839
20
4.15605612664212
30
0.0
 70
     32
  0
VERTEX
  8
MY3DLAYER
10
6.71974050277103
20
4.17301416253335
30
0.0
 70
     32
  0
VERTEX
  8
MY3DLAYER
10
6.71974050277103
20
4.17301416253335
30
0.0625
 70
     32
  0
VERTEX
  8
MY3DLAYER
10
6.72676475122839
20
4.15605612664212
30
0.0625
 70
     32
  0
VERTEX
  8
MY3DLAYER
10
6.72676475122839
20
4.15605612664212
30
0.0
 70
     32
  0
SEQEND
  0
POLYLINE
 8
Group#1
 66
     1
70
    8
 10
0.0
 20
 0.0
 30
0.0
  0
VERTEX
  8
MY3DLAYER
10
6.7379387168798
20
4.14149393108994
30
0.0
 70
     32
  0
VERTEX
  8
MY3DLAYER
10
6.72676475122839
20
4.15605612664212
30
0.0
 70
     32
  0
VERTEX
  8
MY3DLAYER
10
6.72676475122839
20
4.15605612664212
30
0.0625
 70
     32
  0
VERTEX
  8
MY3DLAYER
10
6.7379387168798
20
4.14149393108994
30
0.0625
 70
     32
  0
VERTEX
  8
MY3DLAYER
10
6.7379387168798
20
4.14149393108994
30
0.0
 70
     32
  0
SEQEND
  0
POLYLINE
 8
Group#1
 66
     1
70
    8
 10
0.0
 20
 0.0
 30
0.0
  0
VERTEX
  8
MY3DLAYER
10
7.17936048492963
20
4.56399844422769
30
0.0
 70
     32
  0
VERTEX
  8
MY3DLAYER
10
7.20631143406782
20
4.5231390918148
30
0.0
 70
     32
  0
VERTEX
  8
MY3DLAYER
10
7.20631143406782
20
4.5231390918148
30
0.0625
 70
     32
  0
VERTEX
  8
MY3DLAYER
10
7.17936048492963
20
4.56399844422769
30
0.0625
 70
     32
  0
VERTEX
  8
MY3DLAYER
10
7.17936048492963
20
4.56399844422769
30
0.0
 70
     32
  0
SEQEND
  0
POLYLINE
 8
Group#1
 66
     1
70
    8
 10
0.0
 20
 0.0
 30
0.0
  0
VERTEX
  8
MY3DLAYER
10
7.14275268853903
20
4.59649012904819
30
0.0
 70
     32
  0
VERTEX
  8
MY3DLAYER
10
7.17936048492963
20
4.56399844422769
30
0.0
 70
     32
  0
VERTEX
  8
MY3DLAYER
10
7.17936048492963
20
4.56399844422769
30
0.0625
 70
     32
  0
VERTEX
  8
MY3DLAYER
10
7.14275268853903
20
4.59649012904819
30
0.0625
 70
     32
  0
VERTEX
  8
MY3DLAYER
10
7.14275268853903
20
4.59649012904819
30
0.0
 70
     32
  0
SEQEND
  0
POLYLINE
 8
Group#1
 66
     1
70
    8
 10
0.0
 20
 0.0
 30
0.0
  0
VERTEX
  8
MY3DLAYER
10
7.53765716243198
20
4.40996237664212
30
0.0625
 70
     32
  0
VERTEX
  8
MY3DLAYER
10
7.52062007557652
20
4.53937189919338
30
0.0625
 70
     32
  0
VERTEX
  8
MY3DLAYER
10
7.4706698643242
20
4.65996237664212
30
0.0625
 70
     32
  0
VERTEX
  8
MY3DLAYER
10
7.39121055302526
20
4.76351576723539
30
0.0625
 70
     32
  0
VERTEX
  8
MY3DLAYER
10
7.28765716243198
20
4.84297507853434
30
0.0625
 70
     32
  0
VERTEX
  8
MY3DLAYER
10
7.16706668498324
20
4.89292528978665
30
0.0625
 70
     32
  0
VERTEX
  8
MY3DLAYER
10
7.03765716243198
20
4.90996237664212
30
0.0625
 70
     32
  0
VERTEX
  8
MY3DLAYER
10
6.90824763988072
20
4.89292528978665
30
0.0625
 70
     32
  0
VERTEX
  8
MY3DLAYER
10
6.78765716243198
20
4.84297507853434
30
0.0625
 70
     32
  0
VERTEX
  8
MY3DLAYER
10
6.68410377183871
20
4.76351576723539
30
0.0625
 70
     32
  0
VERTEX
  8
MY3DLAYER
10
6.60464446053976
20
4.65996237664212
30
0.0625
 70
     32
  0
VERTEX
  8
MY3DLAYER
10
6.55469424928745
20
4.53937189919338
30
0.0625
 70
     32
  0
VERTEX
  8
MY3DLAYER
10
6.53765716243198
20
4.40996237664212
30
0.0625
 70
     32
  0
VERTEX
  8
MY3DLAYER
10
6.53765716243198
20
2.94121237664212
30
0.0625
 70
     32
  0
VERTEX
  8
MY3DLAYER
10
7.53765716243198
20
2.94121237664212
30
0.0625
 70
     32
  0
VERTEX
  8
MY3DLAYER
10
7.53765716243198
20
4.40996237664212
30
0.0625
 70
     32
  0
SEQEND
  0
POLYLINE
 8
Group#1
 66
     1
70
    8
 10
0.0
 20
 0.0
 30
0.0
  0
VERTEX
  8
MY3DLAYER
10
7.22176887330839
20
4.4766965691532
30
0.0625
 70
     32
  0
VERTEX
  8
MY3DLAYER
10
7.22467940371172
20
4.42783585741236
30
0.0625
 70
     32
  0
VERTEX
  8
MY3DLAYER
10
7.2148446774407
20
4.37988673335129
30
0.0625
 70
     32
  0
VERTEX
  8
MY3DLAYER
10
7.19293491483806
20
4.33611685053507
30
0.0625
 70
     32
  0
VERTEX
  8
MY3DLAYER
10
7.16044323001755
20
4.29950905414448
30
0.0625
 70
     32
  0
VERTEX
  8
MY3DLAYER
10
7.11958387760466
20
4.27255810500628
30
0.0625
 70
     32
  0
VERTEX
  8
MY3DLAYER
10
7.07314135494306
20
4.25710066576571
30
0.0625
 70
     32
  0
VERTEX
  8
MY3DLAYER
10
7.02428064320222
20
4.25419013536238
30
0.0625
 70
     32
  0
VERTEX
  8
MY3DLAYER
10
6.97633151914115
20
4.2640248616334
30
0.0625
 70
     32
  0
VERTEX
  8
MY3DLAYER
10
6.93256163632493
20
4.28593462423605
30
0.0625
 70
     32
  0
VERTEX
  8
MY3DLAYER
10
6.89595383993434
20
4.31842630905655
30
0.0625
 70
     32
  0
VERTEX
  8
MY3DLAYER
10
6.86900289079615
20
4.35928566146944
30
0.0625
 70
     32
  0
VERTEX
  8
MY3DLAYER
10
6.85354545155558
20
4.40572818413104
30
0.0625
 70
     32
  0
VERTEX
  8
MY3DLAYER
10
6.85063492115225
20
4.45458889587188
30
0.0625
 70
     32
  0
VERTEX
  8
MY3DLAYER
10
6.86046964742326
20
4.50253801993295
30
0.0625
 70
     32
  0
VERTEX
  8
MY3DLAYER
10
6.88237941002591
20
4.54630790274917
30
0.0625
 70
     32
  0
VERTEX
  8
MY3DLAYER
10
6.91487109484641
20
4.58291569913976
30
0.0625
 70
     32
  0
VERTEX
  8
MY3DLAYER
10
6.9557304472593
20
4.60986664827795
30
0.0625
 70
     32
  0
VERTEX
  8
MY3DLAYER
10
7.00217296992091
20
4.62532408751852
30
0.0625
 70
     32
  0
VERTEX
  8
MY3DLAYER
10
7.05103368166174
20
4.62823461792186
30
0.0625
 70
     32
  0
VERTEX
  8
MY3DLAYER
10
7.09898280572282
20
4.61839989165084
30
0.0625
 70
     32
  0
VERTEX
  8
MY3DLAYER
10
7.14275268853903
20
4.59649012904819
30
0.0625
 70
     32
  0
VERTEX
  8
MY3DLAYER
10
7.17936048492963
20
4.56399844422769
30
0.0625
 70
     32
  0
VERTEX
  8
MY3DLAYER
10
7.20631143406782
20
4.5231390918148
30
0.0625
 70
     32
  0
VERTEX
  8
MY3DLAYER
10
7.22176887330839
20
4.4766965691532
30
0.0625
 70
     32
  0
SEQEND
  0
POLYLINE
 8
Group#1
 66
     1
70
    8
 10
0.0
 20
 0.0
 30
0.0
  0
VERTEX
  8
MY3DLAYER
10
6.85557382209293
20
4.20941059075089
30
0.0625
 70
     32
  0
VERTEX
  8
MY3DLAYER
10
6.85796966243198
20
4.19121237664212
30
0.0625
 70
     32
  0
VERTEX
  8
MY3DLAYER
10
6.85557382209293
20
4.17301416253335
30
0.0625
 70
     32
  0
VERTEX
  8
MY3DLAYER
10
6.84854957363557
20
4.15605612664212
30
0.0625
 70
     32
  0
VERTEX
  8
MY3DLAYER
10
6.83737560798416
20
4.14149393108994
30
0.0625
 70
     32
  0
VERTEX
  8
MY3DLAYER
10
6.82281341243198
20
4.13031996543853
30
0.0625
 70
     32
  0
VERTEX
  8
MY3DLAYER
10
6.80585537654075
20
4.12329571698117
30
0.0625
 70
     32
  0
VERTEX
  8
MY3DLAYER
10
6.78765716243198
20
4.12089987664212
30
0.0625
 70
     32
  0
VERTEX
  8
MY3DLAYER
10
6.76945894832321
20
4.12329571698117
30
0.0625
 70
     32
  0
VERTEX
  8
MY3DLAYER
10
6.75250091243198
20
4.13031996543853
30
0.0625
 70
     32
  0
VERTEX
  8
MY3DLAYER
10
6.7379387168798
20
4.14149393108994
30
0.0625
 70
     32
  0
VERTEX
  8
MY3DLAYER
10
6.72676475122839
20
4.15605612664212
30
0.0625
 70
     32
  0
VERTEX
  8
MY3DLAYER
10
6.71974050277103
20
4.17301416253335
30
0.0625
 70
     32
  0
VERTEX
  8
MY3DLAYER
10
6.71734466243198
20
4.19121237664212
30
0.0625
 70
     32
  0
VERTEX
  8
MY3DLAYER
10
6.71974050277103
20
4.20941059075089
30
0.0625
 70
     32
  0
VERTEX
  8
MY3DLAYER
10
6.72676475122839
20
4.22636862664212
30
0.0625
 70
     32
  0
VERTEX
  8
MY3DLAYER
10
6.7379387168798
20
4.2409308221943
30
0.0625
 70
     32
  0
VERTEX
  8
MY3DLAYER
10
6.75250091243198
20
4.25210478784571
30
0.0625
 70
     32
  0
VERTEX
  8
MY3DLAYER
10
6.76945894832321
20
4.25912903630307
30
0.0625
 70
     32
  0
VERTEX
  8
MY3DLAYER
10
6.78765716243198
20
4.26152487664212
30
0.0625
 70
     32
  0
VERTEX
  8
MY3DLAYER
10
6.80585537654075
20
4.25912903630307
30
0.0625
 70
     32
  0
VERTEX
  8
MY3DLAYER
10
6.82281341243198
20
4.25210478784571
30
0.0625
 70
     32
  0
VERTEX
  8
MY3DLAYER
10
6.83737560798416
20
4.2409308221943
30
0.0625
 70
     32
  0
VERTEX
  8
MY3DLAYER
10
6.84854957363557
20
4.22636862664212
30
0.0625
 70
     32
  0
VERTEX
  8
MY3DLAYER
10
6.85557382209293
20
4.20941059075089
30
0.0625
 70
     32
  0
SEQEND
  0
POLYLINE
 8
Group#1
 66
     1
70
    8
 10
0.0
 20
 0.0
 30
0.0
  0
VERTEX
  8
MY3DLAYER
10
7.31343811013763
20
4.12579685561195
30
0.0625
 70
     32
  0
VERTEX
  8
MY3DLAYER
10
7.29562886295917
20
4.12135323517191
30
0.0625
 70
     32
  0
VERTEX
  8
MY3DLAYER
10
7.27727635756363
20
4.12167039977537
30
0.0625
 70
     32
  0
VERTEX
  8
MY3DLAYER
10
7.25963128686478
20
4.12672673517875
30
0.0625
 70
     32
  0
VERTEX
  8
MY3DLAYER
10
7.24389613327089
20
4.1361776604803
30
0.0625
 70
     32
  0
VERTEX
  8
MY3DLAYER
10
7.2311432214958
20
4.14937911073911
30
0.0625
 70
     32
  0
VERTEX
  8
MY3DLAYER
10
7.22224164140181
20
4.16543142893647
30
0.0625
 70
     32
  0
VERTEX
  8
MY3DLAYER
10
7.21779802096177
20
4.18324067611494
30
0.0625
 70
     32
  0
VERTEX
  8
MY3DLAYER
10
7.21811518556524
20
4.20159318151047
30
0.0625
 70
     32
  0
VERTEX
  8
MY3DLAYER
10
7.22317152096862
20
4.21923825220932
30
0.0625
 70
     32
  0
VERTEX
  8
MY3DLAYER
10
7.23262244627016
20
4.23497340580322
30
0.0625
 70
     32
  0
VERTEX
  8
MY3DLAYER
10
7.24582389652897
20
4.2477263175783
30
0.0625
 70
     32
  0
VERTEX
  8
MY3DLAYER
10
7.26187621472633
20
4.25662789767229
30
0.0625
 70
     32
  0
VERTEX
  8
MY3DLAYER
10
7.2796854619048
20
4.26107151811233
30
0.0625
 70
     32
  0
VERTEX
  8
MY3DLAYER
10
7.29803796730033
20
4.26075435350887
30
0.0625
 70
     32
  0
VERTEX
  8
MY3DLAYER
10
7.31568303799918
20
4.25569801810548
30
0.0625
 70
     32
  0
VERTEX
  8
MY3DLAYER
10
7.33141819159308
20
4.24624709280394
30
0.0625
 70
     32
  0
VERTEX
  8
MY3DLAYER
10
7.34417110336816
20
4.23304564254513
30
0.0625
 70
     32
  0
VERTEX
  8
MY3DLAYER
10
7.35307268346215
20
4.21699332434777
30
0.0625
 70
     32
  0
VERTEX
  8
MY3DLAYER
10
7.35751630390219
20
4.1991840771693
30
0.0625
 70
     32
  0
VERTEX
  8
MY3DLAYER
10
7.35719913929873
20
4.18083157177377
30
0.0625
 70
     32
  0
VERTEX
  8
MY3DLAYER
10
7.35214280389535
20
4.16318650107492
30
0.0625
 70
     32
  0
VERTEX
  8
MY3DLAYER
10
7.3426918785938
20
4.14745134748102
30
0.0625
 70
     32
  0
VERTEX
  8
MY3DLAYER
10
7.32949042833499
20
4.13469843570594
30
0.0625
 70
     32
  0
VERTEX
  8
MY3DLAYER
10
7.31343811013763
20
4.12579685561195
30
0.0625
 70
     32
  0
SEQEND
  0
POLYLINE
 8
Group#1
 66
     1
70
    8
 10
0.0
 20
 0.0
 30
0.0
  0
VERTEX
  8
MY3DLAYER
10
6.85186738091584
20
3.16256110270001
30
0.0625
 70
     32
  0
VERTEX
  8
MY3DLAYER
10
6.84226397541453
20
3.14691854375154
30
0.0625
 70
     32
  0
VERTEX
  8
MY3DLAYER
10
6.82893920585049
20
3.13429453631554
30
0.0625
 70
     32
  0
VERTEX
  8
MY3DLAYER
10
6.81280113324928
20
3.12554938563662
30
0.0625
 70
     32
  0
VERTEX
  8
MY3DLAYER
10
6.79494954058925
20
3.1212790592815
30
0.0625
 70
     32
  0
VERTEX
  8
MY3DLAYER
10
6.77660098440903
20
3.12177457293423
30
0.0625
 70
     32
  0
VERTEX
  8
MY3DLAYER
10
6.75900588848987
20
3.12700215815827
30
0.0625
 70
     32
  0
VERTEX
  8
MY3DLAYER
10
6.7433633295414
20
3.13660556365957
30
0.0625
 70
     32
  0
VERTEX
  8
MY3DLAYER
10
6.7307393221054
20
3.14993033322361
30
0.0625
 70
     32
  0
VERTEX
  8
MY3DLAYER
10
6.72199417142648
20
3.16606840582482
30
0.0625
 70
     32
  0
VERTEX
  8
MY3DLAYER
10
6.71772384507136
20
3.18391999848485
30
0.0625
 70
     32
  0
VERTEX
  8
MY3DLAYER
10
6.7182193587241
20
3.20226855466507
30
0.0625
 70
     32
  0
VERTEX
  8
MY3DLAYER
10
6.72344694394813
20
3.21986365058423
30
0.0625
 70
     32
  0
VERTEX
  8
MY3DLAYER
10
6.73305034944943
20
3.2355062095327
30
0.0625
 70
     32
  0
VERTEX
  8
MY3DLAYER
10
6.74637511901347
20
3.2481302169687
30
0.0625
 70
     32
  0
VERTEX
  8
MY3DLAYER
10
6.76251319161468
20
3.25687536764762
30
0.0625
 70
     32
  0
VERTEX
  8
MY3DLAYER
10
6.78036478427471
20
3.26114569400274
30
0.0625
 70
     32
  0
VERTEX
  8
MY3DLAYER
10
6.79871334045493
20
3.26065018035
30
0.0625
 70
     32
  0
VERTEX
  8
MY3DLAYER
10
6.81630843637409
20
3.25542259512597
30
0.0625
 70
     32
  0
VERTEX
  8
MY3DLAYER
10
6.83195099532256
20
3.24581918962467
30
0.0625
 70
     32
  0
VERTEX
  8
MY3DLAYER
10
6.84457500275856
20
3.23249442006063
30
0.0625
 70
     32
  0
VERTEX
  8
MY3DLAYER
10
6.85332015343748
20
3.21635634745942
30
0.0625
 70
     32
  0
VERTEX
  8
MY3DLAYER
10
6.8575904797926
20
3.19850475479939
30
0.0625
 70
     32
  0
VERTEX
  8
MY3DLAYER
10
6.85709496613987
20
3.18015619861917
30
0.0625
 70
     32
  0
VERTEX
  8
MY3DLAYER
10
6.85186738091584
20
3.16256110270001
30
0.0625
 70
     32
  0
SEQEND
  0
POLYLINE
 8
Group#1
 66
     1
70
    8
 10
0.0
 20
 0.0
 30
0.0
  0
VERTEX
  8
MY3DLAYER
10
7.34991389335366
20
3.15853291656097
30
0.0625
 70
     32
  0
VERTEX
  8
MY3DLAYER
10
7.33933448003689
20
3.1435332145122
30
0.0625
 70
     32
  0
VERTEX
  8
MY3DLAYER
10
7.32523334292615
20
3.13178276856904
30
0.0625
 70
     32
  0
VERTEX
  8
MY3DLAYER
10
7.30857145121231
20
3.124082352204
30
0.0625
 70
     32
  0
VERTEX
  8
MY3DLAYER
10
7.29048428528059
20
3.1209567360668
30
0.0625
 70
     32
  0
VERTEX
  8
MY3DLAYER
10
7.27220445559877
20
3.12261892573187
30
0.0625
 70
     32
  0
VERTEX
  8
MY3DLAYER
10
7.25497770235083
20
3.12895564572044
30
0.0625
 70
     32
  0
VERTEX
  8
MY3DLAYER
10
7.23997800030206
20
3.13953505903721
30
0.0625
 70
     32
  0
VERTEX
  8
MY3DLAYER
10
7.22822755435891
20
3.15363619614795
30
0.0625
 70
     32
  0
VERTEX
  8
MY3DLAYER
10
7.22052713799386
20
3.17029808786179
30
0.0625
 70
     32
  0
VERTEX
  8
MY3DLAYER
10
7.21740152185666
20
3.18838525379351
30
0.0625
 70
     32
  0
VERTEX
  8
MY3DLAYER
10
7.21906371152173
20
3.20666508347533
30
0.0625
 70
     32
  0
VERTEX
  8
MY3DLAYER
10
7.2254004315103
20
3.22389183672327
30
0.0625
 70
     32
  0
VERTEX
  8
MY3DLAYER
10
7.23597984482707
20
3.23889153877204
30
0.0625
 70
     32
  0
VERTEX
  8
MY3DLAYER
10
7.25008098193781
20
3.25064198471519
30
0.0625
 70
     32
  0
VERTEX
  8
MY3DLAYER
10
7.26674287365165
20
3.25834240108024
30
0.0625
 70
     32
  0
VERTEX
  8
MY3DLAYER
10
7.28483003958338
20
3.26146801721744
30
0.0625
 70
     32
  0
VERTEX
  8
MY3DLAYER
10
7.30310986926519
20
3.25980582755237
30
0.0625
 70
     32
  0
VERTEX
  8
MY3DLAYER
10
7.32033662251313
20
3.2534691075638
30
0.0625
 70
     32
  0
VERTEX
  8
MY3DLAYER
10
7.3353363245619
20
3.24288969424703
30
0.0625
 70
     32
  0
VERTEX
  8
MY3DLAYER
10
7.34708677050506
20
3.22878855713629
30
0.0625
 70
     32
  0
VERTEX
  8
MY3DLAYER
10
7.35478718687011
20
3.21212666542245
30
0.0625
 70
     32
  0
VERTEX
  8
MY3DLAYER
10
7.3579128030073
20
3.19403949949072
30
0.0625
 70
     32
  0
VERTEX
  8
MY3DLAYER
10
7.35625061334223
20
3.17575966980891
30
0.0625
 70
     32
  0
VERTEX
  8
MY3DLAYER
10
7.34991389335366
20
3.15853291656097
30
0.0625
 70
     32
  0
SEQEND
  0
POLYLINE
 8
Group#1
 66
     1
70
    8
 10
0.0
 20
 0.0
 30
0.0
  0
VERTEX
  8
MY3DLAYER
10
6.76153732988933
20
3.75649332335855
30
0.0625
 70
     32
  0
VERTEX
  8
MY3DLAYER
10
6.77932329389322
20
3.76102923915705
30
0.0625
 70
     32
  0
VERTEX
  8
MY3DLAYER
10
6.79767719726566
20
3.76080725115297
30
0.0625
 70
     32
  0
VERTEX
  8
MY3DLAYER
10
6.81534825182308
20
3.75584248746195
30
0.0625
 70
     32
  0
VERTEX
  8
MY3DLAYER
10
6.83113220440018
20
3.74647328852487
30
0.0625
 70
     32
  0
VERTEX
  8
MY3DLAYER
10
6.84395340471306
20
3.73333814976595
30
0.0625
 70
     32
  0
VERTEX
  8
MY3DLAYER
10
6.85293810914841
20
3.71733220918478
30
0.0625
 70
     32
  0
VERTEX
  8
MY3DLAYER
10
6.85747402494691
20
3.69954624518088
30
0.0625
 70
     32
  0
VERTEX
  8
MY3DLAYER
10
6.85725203694284
20
3.68119234180844
30
0.0625
 70
     32
  0
VERTEX
  8
MY3DLAYER
10
6.85228727325182
20
3.66352128725102
30
0.0625
 70
     32
  0
VERTEX
  8
MY3DLAYER
10
6.84291807431473
20
3.64773733467392
30
0.0625
 70
     32
  0
VERTEX
  8
MY3DLAYER
10
6.82978293555581
20
3.63491613436104
30
0.0625
 70
     32
  0
VERTEX
  8
MY3DLAYER
10
6.81377699497464
20
3.62593142992569
30
0.0625
 70
     32
  0
VERTEX
  8
MY3DLAYER
10
6.79599103097074
20
3.62139551412719
30
0.0625
 70
     32
  0
VERTEX
  8
MY3DLAYER
10
6.7776371275983
20
3.62161750213126
30
0.0625
 70
     32
  0
VERTEX
  8
MY3DLAYER
10
6.75996607304088
20
3.62658226582228
30
0.0625
 70
     32
  0
VERTEX
  8
MY3DLAYER
10
6.74418212046378
20
3.63595146475937
30
0.0625
 70
     32
  0
VERTEX
  8
MY3DLAYER
10
6.73136092015091
20
3.64908660351829
30
0.0625
 70
     32
  0
VERTEX
  8
MY3DLAYER
10
6.72237621571555
20
3.66509254409946
30
0.0625
 70
     32
  0
VERTEX
  8
MY3DLAYER
10
6.71784029991705
20
3.68287850810336
30
0.0625
 70
     32
  0
VERTEX
  8
MY3DLAYER
10
6.71806228792113
20
3.7012324114758
30
0.0625
 70
     32
  0
VERTEX
  8
MY3DLAYER
10
6.72302705161215
20
3.71890346603322
30
0.0625
 70
     32
  0
VERTEX
  8
MY3DLAYER
10
6.73239625054923
20
3.73468741861032
30
0.0625
 70
     32
  0
VERTEX
  8
MY3DLAYER
10
6.74553138930815
20
3.74750861892319
30
0.0625
 70
     32
  0
VERTEX
  8
MY3DLAYER
10
6.76153732988933
20
3.75649332335855
30
0.0625
 70
     32
  0
SEQEND
  0
POLYLINE
 8
Group#1
 66
     1
70
    8
 10
0.0
 20
 0.0
 30
0.0
  0
VERTEX
  8
MY3DLAYER
10
7.32281341243198
20
3.75210478784571
30
0.0625
 70
     32
  0
VERTEX
  8
MY3DLAYER
10
7.33737560798416
20
3.7409308221943
30
0.0625
 70
     32
  0
VERTEX
  8
MY3DLAYER
10
7.34854957363557
20
3.72636862664212
30
0.0625
 70
     32
  0
VERTEX
  8
MY3DLAYER
10
7.35557382209293
20
3.70941059075089
30
0.0625
 70
     32
  0
VERTEX
  8
MY3DLAYER
10
7.35796966243198
20
3.69121237664212
30
0.0625
 70
     32
  0
VERTEX
  8
MY3DLAYER
10
7.35557382209293
20
3.67301416253335
30
0.0625
 70
     32
  0
VERTEX
  8
MY3DLAYER
10
7.34854957363557
20
3.65605612664212
30
0.0625
 70
     32
  0
VERTEX
  8
MY3DLAYER
10
7.33737560798416
20
3.64149393108994
30
0.0625
 70
     32
  0
VERTEX
  8
MY3DLAYER
10
7.32281341243198
20
3.63031996543853
30
0.0625
 70
     32
  0
VERTEX
  8
MY3DLAYER
10
7.30585537654075
20
3.62329571698117
30
0.0625
 70
     32
  0
VERTEX
  8
MY3DLAYER
10
7.28765716243198
20
3.62089987664212
30
0.0625
 70
     32
  0
VERTEX
  8
MY3DLAYER
10
7.26945894832321
20
3.62329571698117
30
0.0625
 70
     32
  0
VERTEX
  8
MY3DLAYER
10
7.25250091243198
20
3.63031996543853
30
0.0625
 70
     32
  0
VERTEX
  8
MY3DLAYER
10
7.2379387168798
20
3.64149393108994
30
0.0625
 70
     32
  0
VERTEX
  8
MY3DLAYER
10
7.22676475122839
20
3.65605612664212
30
0.0625
 70
     32
  0
VERTEX
  8
MY3DLAYER
10
7.21974050277103
20
3.67301416253335
30
0.0625
 70
     32
  0
VERTEX
  8
MY3DLAYER
10
7.21734466243198
20
3.69121237664212
30
0.0625
 70
     32
  0
VERTEX
  8
MY3DLAYER
10
7.21974050277103
20
3.70941059075089
30
0.0625
 70
     32
  0
VERTEX
  8
MY3DLAYER
10
7.22676475122839
20
3.72636862664212
30
0.0625
 70
     32
  0
VERTEX
  8
MY3DLAYER
10
7.2379387168798
20
3.7409308221943
30
0.0625
 70
     32
  0
VERTEX
  8
MY3DLAYER
10
7.25250091243198
20
3.75210478784571
30
0.0625
 70
     32
  0
VERTEX
  8
MY3DLAYER
10
7.26945894832321
20
3.75912903630307
30
0.0625
 70
     32
  0
VERTEX
  8
MY3DLAYER
10
7.28765716243198
20
3.76152487664212
30
0.0625
 70
     32
  0
VERTEX
  8
MY3DLAYER
10
7.30585537654075
20
3.75912903630307
30
0.0625
 70
     32
  0
VERTEX
  8
MY3DLAYER
10
7.32281341243198
20
3.75210478784571
30
0.0625
 70
     32
  0
SEQEND
  0
POLYLINE
 8
Group#1
 66
     1
70
    8
 10
0.0
 20
 0.0
 30
0.0
  0
VERTEX
  8
MY3DLAYER
10
7.19293491483806
20
4.33611685053507
30
0.0
 70
     32
  0
VERTEX
  8
MY3DLAYER
10
7.16044323001755
20
4.29950905414448
30
0.0
 70
     32
  0
VERTEX
  8
MY3DLAYER
10
7.16044323001755
20
4.29950905414448
30
0.0625
 70
     32
  0
VERTEX
  8
MY3DLAYER
10
7.19293491483806
20
4.33611685053507
30
0.0625
 70
     32
  0
VERTEX
  8
MY3DLAYER
10
7.19293491483806
20
4.33611685053507
30
0.0
 70
     32
  0
SEQEND
  0
POLYLINE
 8
Group#1
 66
     1
70
    8
 10
0.0
 20
 0.0
 30
0.0
  0
VERTEX
  8
MY3DLAYER
10
6.9557304472593
20
4.60986664827795
30
0.0
 70
     32
  0
VERTEX
  8
MY3DLAYER
10
7.00217296992091
20
4.62532408751852
30
0.0
 70
     32
  0
VERTEX
  8
MY3DLAYER
10
7.00217296992091
20
4.62532408751852
30
0.0625
 70
     32
  0
VERTEX
  8
MY3DLAYER
10
6.9557304472593
20
4.60986664827795
30
0.0625
 70
     32
  0
VERTEX
  8
MY3DLAYER
10
6.9557304472593
20
4.60986664827795
30
0.0
 70
     32
  0
SEQEND
  0
POLYLINE
 8
Group#1
 66
     1
70
    8
 10
0.0
 20
 0.0
 30
0.0
  0
VERTEX
  8
MY3DLAYER
10
6.91487109484641
20
4.58291569913976
30
0.0
 70
     32
  0
VERTEX
  8
MY3DLAYER
10
6.9557304472593
20
4.60986664827795
30
0.0
 70
     32
  0
VERTEX
  8
MY3DLAYER
10
6.9557304472593
20
4.60986664827795
30
0.0625
 70
     32
  0
VERTEX
  8
MY3DLAYER
10
6.91487109484641
20
4.58291569913976
30
0.0625
 70
     32
  0
VERTEX
  8
MY3DLAYER
10
6.91487109484641
20
4.58291569913976
30
0.0
 70
     32
  0
SEQEND
  0
POLYLINE
 8
Group#1
 66
     1
70
    8
 10
0.0
 20
 0.0
 30
0.0
  0
VERTEX
  8
MY3DLAYER
10
7.22467940371172
20
4.42783585741236
30
0.0
 70
     32
  0
VERTEX
  8
MY3DLAYER
10
7.2148446774407
20
4.37988673335129
30
0.0
 70
     32
  0
VERTEX
  8
MY3DLAYER
10
7.2148446774407
20
4.37988673335129
30
0.0625
 70
     32
  0
VERTEX
  8
MY3DLAYER
10
7.22467940371172
20
4.42783585741236
30
0.0625
 70
     32
  0
VERTEX
  8
MY3DLAYER
10
7.22467940371172
20
4.42783585741236
30
0.0
 70
     32
  0
SEQEND
  0
POLYLINE
 8
Group#1
 66
     1
70
    8
 10
0.0
 20
 0.0
 30
0.0
  0
VERTEX
  8
MY3DLAYER
10
6.85557382209293
20
4.20941059075089
30
0.0
 70
     32
  0
VERTEX
  8
MY3DLAYER
10
6.85796966243198
20
4.19121237664212
30
0.0
 70
     32
  0
VERTEX
  8
MY3DLAYER
10
6.85796966243198
20
4.19121237664212
30
0.0625
 70
     32
  0
VERTEX
  8
MY3DLAYER
10
6.85557382209293
20
4.20941059075089
30
0.0625
 70
     32
  0
VERTEX
  8
MY3DLAYER
10
6.85557382209293
20
4.20941059075089
30
0.0
 70
     32
  0
SEQEND
  0
POLYLINE
 8
Group#1
 66
     1
70
    8
 10
0.0
 20
 0.0
 30
0.0
  0
VERTEX
  8
MY3DLAYER
10
6.84854957363557
20
4.22636862664212
30
0.0
 70
     32
  0
VERTEX
  8
MY3DLAYER
10
6.85557382209293
20
4.20941059075089
30
0.0
 70
     32
  0
VERTEX
  8
MY3DLAYER
10
6.85557382209293
20
4.20941059075089
30
0.0625
 70
     32
  0
VERTEX
  8
MY3DLAYER
10
6.84854957363557
20
4.22636862664212
30
0.0625
 70
     32
  0
VERTEX
  8
MY3DLAYER
10
6.84854957363557
20
4.22636862664212
30
0.0
 70
     32
  0
SEQEND
  0
POLYLINE
 8
Group#1
 66
     1
70
    8
 10
0.0
 20
 0.0
 30
0.0
  0
VERTEX
  8
MY3DLAYER
10
7.27727635756363
20
4.12167039977537
30
0.0
 70
     32
  0
VERTEX
  8
MY3DLAYER
10
7.25963128686478
20
4.12672673517875
30
0.0
 70
     32
  0
VERTEX
  8
MY3DLAYER
10
7.25963128686478
20
4.12672673517875
30
0.0625
 70
     32
  0
VERTEX
  8
MY3DLAYER
10
7.27727635756363
20
4.12167039977537
30
0.0625
 70
     32
  0
VERTEX
  8
MY3DLAYER
10
7.27727635756363
20
4.12167039977537
30
0.0
 70
     32
  0
SEQEND
  0
POLYLINE
 8
Group#1
 66
     1
70
    8
 10
0.0
 20
 0.0
 30
0.0
  0
VERTEX
  8
MY3DLAYER
10
7.29562886295917
20
4.12135323517191
30
0.0
 70
     32
  0
VERTEX
  8
MY3DLAYER
10
7.27727635756363
20
4.12167039977537
30
0.0
 70
     32
  0
VERTEX
  8
MY3DLAYER
10
7.27727635756363
20
4.12167039977537
30
0.0625
 70
     32
  0
VERTEX
  8
MY3DLAYER
10
7.29562886295917
20
4.12135323517191
30
0.0625
 70
     32
  0
VERTEX
  8
MY3DLAYER
10
7.29562886295917
20
4.12135323517191
30
0.0
 70
     32
  0
SEQEND
  0
POLYLINE
 8
Group#1
 66
     1
70
    8
 10
0.0
 20
 0.0
 30
0.0
  0
VERTEX
  8
MY3DLAYER
10
6.85186738091584
20
3.16256110270001
30
0.0
 70
     32
  0
VERTEX
  8
MY3DLAYER
10
6.84226397541453
20
3.14691854375154
30
0.0
 70
     32
  0
VERTEX
  8
MY3DLAYER
10
6.84226397541453
20
3.14691854375154
30
0.0625
 70
     32
  0
VERTEX
  8
MY3DLAYER
10
6.85186738091584
20
3.16256110270001
30
0.0625
 70
     32
  0
VERTEX
  8
MY3DLAYER
10
6.85186738091584
20
3.16256110270001
30
0.0
 70
     32
  0
SEQEND
  0
POLYLINE
 8
Group#1
 66
     1
70
    8
 10
0.0
 20
 0.0
 30
0.0
  0
VERTEX
  8
MY3DLAYER
10
6.85709496613987
20
3.18015619861917
30
0.0
 70
     32
  0
VERTEX
  8
MY3DLAYER
10
6.85186738091584
20
3.16256110270001
30
0.0
 70
     32
  0
VERTEX
  8
MY3DLAYER
10
6.85186738091584
20
3.16256110270001
30
0.0625
 70
     32
  0
VERTEX
  8
MY3DLAYER
10
6.85709496613987
20
3.18015619861917
30
0.0625
 70
     32
  0
VERTEX
  8
MY3DLAYER
10
6.85709496613987
20
3.18015619861917
30
0.0
 70
     32
  0
SEQEND
  0
POLYLINE
 8
Group#1
 66
     1
70
    8
 10
0.0
 20
 0.0
 30
0.0
  0
VERTEX
  8
MY3DLAYER
10
6.8575904797926
20
3.19850475479939
30
0.0
 70
     32
  0
VERTEX
  8
MY3DLAYER
10
6.85709496613987
20
3.18015619861917
30
0.0
 70
     32
  0
VERTEX
  8
MY3DLAYER
10
6.85709496613987
20
3.18015619861917
30
0.0625
 70
     32
  0
VERTEX
  8
MY3DLAYER
10
6.8575904797926
20
3.19850475479939
30
0.0625
 70
     32
  0
VERTEX
  8
MY3DLAYER
10
6.8575904797926
20
3.19850475479939
30
0.0
 70
     32
  0
SEQEND
  0
POLYLINE
 8
Group#1
 66
     1
70
    8
 10
0.0
 20
 0.0
 30
0.0
  0
VERTEX
  8
MY3DLAYER
10
6.85063492115225
20
4.45458889587188
30
0.0
 70
     32
  0
VERTEX
  8
MY3DLAYER
10
6.86046964742326
20
4.50253801993295
30
0.0
 70
     32
  0
VERTEX
  8
MY3DLAYER
10
6.86046964742326
20
4.50253801993295
30
0.0625
 70
     32
  0
VERTEX
  8
MY3DLAYER
10
6.85063492115225
20
4.45458889587188
30
0.0625
 70
     32
  0
VERTEX
  8
MY3DLAYER
10
6.85063492115225
20
4.45458889587188
30
0.0
 70
     32
  0
SEQEND
  0
POLYLINE
 8
Group#1
 66
     1
70
    8
 10
0.0
 20
 0.0
 30
0.0
  0
VERTEX
  8
MY3DLAYER
10
6.75250091243198
20
4.13031996543853
30
0.0
 70
     32
  0
VERTEX
  8
MY3DLAYER
10
6.7379387168798
20
4.14149393108994
30
0.0
 70
     32
  0
VERTEX
  8
MY3DLAYER
10
6.7379387168798
20
4.14149393108994
30
0.0625
 70
     32
  0
VERTEX
  8
MY3DLAYER
10
6.75250091243198
20
4.13031996543853
30
0.0625
 70
     32
  0
VERTEX
  8
MY3DLAYER
10
6.75250091243198
20
4.13031996543853
30
0.0
 70
     32
  0
SEQEND
  0
POLYLINE
 8
Group#1
 66
     1
70
    8
 10
0.0
 20
 0.0
 30
0.0
  0
VERTEX
  8
MY3DLAYER
10
6.76945894832321
20
4.12329571698117
30
0.0
 70
     32
  0
VERTEX
  8
MY3DLAYER
10
6.75250091243198
20
4.13031996543853
30
0.0
 70
     32
  0
VERTEX
  8
MY3DLAYER
10
6.75250091243198
20
4.13031996543853
30
0.0625
 70
     32
  0
VERTEX
  8
MY3DLAYER
10
6.76945894832321
20
4.12329571698117
30
0.0625
 70
     32
  0
VERTEX
  8
MY3DLAYER
10
6.76945894832321
20
4.12329571698117
30
0.0
 70
     32
  0
SEQEND
  0
POLYLINE
 8
Group#1
 66
     1
70
    8
 10
0.0
 20
 0.0
 30
0.0
  0
VERTEX
  8
MY3DLAYER
10
6.78765716243198
20
4.12089987664212
30
0.0
 70
     32
  0
VERTEX
  8
MY3DLAYER
10
6.76945894832321
20
4.12329571698117
30
0.0
 70
     32
  0
VERTEX
  8
MY3DLAYER
10
6.76945894832321
20
4.12329571698117
30
0.0625
 70
     32
  0
VERTEX
  8
MY3DLAYER
10
6.78765716243198
20
4.12089987664212
30
0.0625
 70
     32
  0
VERTEX
  8
MY3DLAYER
10
6.78765716243198
20
4.12089987664212
30
0.0
 70
     32
  0
SEQEND
  0
POLYLINE
 8
Group#1
 66
     1
70
    8
 10
0.0
 20
 0.0
 30
0.0
  0
VERTEX
  8
MY3DLAYER
10
6.80585537654075
20
4.12329571698117
30
0.0
 70
     32
  0
VERTEX
  8
MY3DLAYER
10
6.78765716243198
20
4.12089987664212
30
0.0
 70
     32
  0
VERTEX
  8
MY3DLAYER
10
6.78765716243198
20
4.12089987664212
30
0.0625
 70
     32
  0
VERTEX
  8
MY3DLAYER
10
6.80585537654075
20
4.12329571698117
30
0.0625
 70
     32
  0
VERTEX
  8
MY3DLAYER
10
6.80585537654075
20
4.12329571698117
30
0.0
 70
     32
  0
SEQEND
  0
POLYLINE
 8
Group#1
 66
     1
70
    8
 10
0.0
 20
 0.0
 30
0.0
  0
VERTEX
  8
MY3DLAYER
10
6.82281341243198
20
4.13031996543853
30
0.0
 70
     32
  0
VERTEX
  8
MY3DLAYER
10
6.80585537654075
20
4.12329571698117
30
0.0
 70
     32
  0
VERTEX
  8
MY3DLAYER
10
6.80585537654075
20
4.12329571698117
30
0.0625
 70
     32
  0
VERTEX
  8
MY3DLAYER
10
6.82281341243198
20
4.13031996543853
30
0.0625
 70
     32
  0
VERTEX
  8
MY3DLAYER
10
6.82281341243198
20
4.13031996543853
30
0.0
 70
     32
  0
SEQEND
  0
POLYLINE
 8
Group#1
 66
     1
70
    8
 10
0.0
 20
 0.0
 30
0.0
  0
VERTEX
  8
MY3DLAYER
10
6.83737560798416
20
4.2409308221943
30
0.0
 70
     32
  0
VERTEX
  8
MY3DLAYER
10
6.84854957363557
20
4.22636862664212
30
0.0
 70
     32
  0
VERTEX
  8
MY3DLAYER
10
6.84854957363557
20
4.22636862664212
30
0.0625
 70
     32
  0
VERTEX
  8
MY3DLAYER
10
6.83737560798416
20
4.2409308221943
30
0.0625
 70
     32
  0
VERTEX
  8
MY3DLAYER
10
6.83737560798416
20
4.2409308221943
30
0.0
 70
     32
  0
SEQEND
  0
POLYLINE
 8
Group#1
 66
     1
70
    8
 10
0.0
 20
 0.0
 30
0.0
  0
VERTEX
  8
MY3DLAYER
10
6.72344694394813
20
3.21986365058423
30
0.0
 70
     32
  0
VERTEX
  8
MY3DLAYER
10
6.73305034944943
20
3.2355062095327
30
0.0
 70
     32
  0
VERTEX
  8
MY3DLAYER
10
6.73305034944943
20
3.2355062095327
30
0.0625
 70
     32
  0
VERTEX
  8
MY3DLAYER
10
6.72344694394813
20
3.21986365058423
30
0.0625
 70
     32
  0
VERTEX
  8
MY3DLAYER
10
6.72344694394813
20
3.21986365058423
30
0.0
 70
     32
  0
SEQEND
  0
POLYLINE
 8
Group#1
 66
     1
70
    8
 10
0.0
 20
 0.0
 30
0.0
  0
VERTEX
  8
MY3DLAYER
10
6.7182193587241
20
3.20226855466507
30
0.0
 70
     32
  0
VERTEX
  8
MY3DLAYER
10
6.72344694394813
20
3.21986365058423
30
0.0
 70
     32
  0
VERTEX
  8
MY3DLAYER
10
6.72344694394813
20
3.21986365058423
30
0.0625
 70
     32
  0
VERTEX
  8
MY3DLAYER
10
6.7182193587241
20
3.20226855466507
30
0.0625
 70
     32
  0
VERTEX
  8
MY3DLAYER
10
6.7182193587241
20
3.20226855466507
30
0.0
 70
     32
  0
SEQEND
  0
POLYLINE
 8
Group#1
 66
     1
70
    8
 10
0.0
 20
 0.0
 30
0.0
  0
VERTEX
  8
MY3DLAYER
10
6.71772384507136
20
3.18391999848485
30
0.0
 70
     32
  0
VERTEX
  8
MY3DLAYER
10
6.7182193587241
20
3.20226855466507
30
0.0
 70
     32
  0
VERTEX
  8
MY3DLAYER
10
6.7182193587241
20
3.20226855466507
30
0.0625
 70
     32
  0
VERTEX
  8
MY3DLAYER
10
6.71772384507136
20
3.18391999848485
30
0.0625
 70
     32
  0
VERTEX
  8
MY3DLAYER
10
6.71772384507136
20
3.18391999848485
30
0.0
 70
     32
  0
SEQEND
  0
POLYLINE
 8
Group#1
 66
     1
70
    8
 10
0.0
 20
 0.0
 30
0.0
  0
VERTEX
  8
MY3DLAYER
10
6.73305034944943
20
3.2355062095327
30
0.0
 70
     32
  0
VERTEX
  8
MY3DLAYER
10
6.74637511901347
20
3.2481302169687
30
0.0
 70
     32
  0
VERTEX
  8
MY3DLAYER
10
6.74637511901347
20
3.2481302169687
30
0.0625
 70
     32
  0
VERTEX
  8
MY3DLAYER
10
6.73305034944943
20
3.2355062095327
30
0.0625
 70
     32
  0
VERTEX
  8
MY3DLAYER
10
6.73305034944943
20
3.2355062095327
30
0.0
 70
     32
  0
SEQEND
  0
POLYLINE
 8
Group#1
 66
     1
70
    8
 10
0.0
 20
 0.0
 30
0.0
  0
VERTEX
  8
MY3DLAYER
10
6.88237941002591
20
4.54630790274917
30
0.0
 70
     32
  0
VERTEX
  8
MY3DLAYER
10
6.91487109484641
20
4.58291569913976
30
0.0
 70
     32
  0
VERTEX
  8
MY3DLAYER
10
6.91487109484641
20
4.58291569913976
30
0.0625
 70
     32
  0
VERTEX
  8
MY3DLAYER
10
6.88237941002591
20
4.54630790274917
30
0.0625
 70
     32
  0
VERTEX
  8
MY3DLAYER
10
6.88237941002591
20
4.54630790274917
30
0.0
 70
     32
  0
SEQEND
  0
POLYLINE
 8
Group#1
 66
     1
70
    8
 10
0.0
 20
 0.0
 30
0.0
  0
VERTEX
  8
MY3DLAYER
10
6.86046964742326
20
4.50253801993295
30
0.0
 70
     32
  0
VERTEX
  8
MY3DLAYER
10
6.88237941002591
20
4.54630790274917
30
0.0
 70
     32
  0
VERTEX
  8
MY3DLAYER
10
6.88237941002591
20
4.54630790274917
30
0.0625
 70
     32
  0
VERTEX
  8
MY3DLAYER
10
6.86046964742326
20
4.50253801993295
30
0.0625
 70
     32
  0
VERTEX
  8
MY3DLAYER
10
6.86046964742326
20
4.50253801993295
30
0.0
 70
     32
  0
SEQEND
  0
POLYLINE
 8
Group#1
 66
     1
70
    8
 10
0.0
 20
 0.0
 30
0.0
  0
VERTEX
  8
MY3DLAYER
10
7.23262244627016
20
4.23497340580322
30
0.0
 70
     32
  0
VERTEX
  8
MY3DLAYER
10
7.24582389652897
20
4.2477263175783
30
0.0
 70
     32
  0
VERTEX
  8
MY3DLAYER
10
7.24582389652897
20
4.2477263175783
30
0.0625
 70
     32
  0
VERTEX
  8
MY3DLAYER
10
7.23262244627016
20
4.23497340580322
30
0.0625
 70
     32
  0
VERTEX
  8
MY3DLAYER
10
7.23262244627016
20
4.23497340580322
30
0.0
 70
     32
  0
SEQEND
  0
POLYLINE
 8
Group#1
 66
     1
70
    8
 10
0.0
 20
 0.0
 30
0.0
  0
VERTEX
  8
MY3DLAYER
10
7.22317152096862
20
4.21923825220932
30
0.0
 70
     32
  0
VERTEX
  8
MY3DLAYER
10
7.23262244627016
20
4.23497340580322
30
0.0
 70
     32
  0
VERTEX
  8
MY3DLAYER
10
7.23262244627016
20
4.23497340580322
30
0.0625
 70
     32
  0
VERTEX
  8
MY3DLAYER
10
7.22317152096862
20
4.21923825220932
30
0.0625
 70
     32
  0
VERTEX
  8
MY3DLAYER
10
7.22317152096862
20
4.21923825220932
30
0.0
 70
     32
  0
SEQEND
  0
POLYLINE
 8
Group#1
 66
     1
70
    8
 10
0.0
 20
 0.0
 30
0.0
  0
VERTEX
  8
MY3DLAYER
10
7.21811518556524
20
4.20159318151047
30
0.0
 70
     32
  0
VERTEX
  8
MY3DLAYER
10
7.22317152096862
20
4.21923825220932
30
0.0
 70
     32
  0
VERTEX
  8
MY3DLAYER
10
7.22317152096862
20
4.21923825220932
30
0.0625
 70
     32
  0
VERTEX
  8
MY3DLAYER
10
7.21811518556524
20
4.20159318151047
30
0.0625
 70
     32
  0
VERTEX
  8
MY3DLAYER
10
7.21811518556524
20
4.20159318151047
30
0.0
 70
     32
  0
SEQEND
  0
POLYLINE
 8
Group#1
 66
     1
70
    8
 10
0.0
 20
 0.0
 30
0.0
  0
VERTEX
  8
MY3DLAYER
10
7.21779802096177
20
4.18324067611494
30
0.0
 70
     32
  0
VERTEX
  8
MY3DLAYER
10
7.21811518556524
20
4.20159318151047
30
0.0
 70
     32
  0
VERTEX
  8
MY3DLAYER
10
7.21811518556524
20
4.20159318151047
30
0.0625
 70
     32
  0
VERTEX
  8
MY3DLAYER
10
7.21779802096177
20
4.18324067611494
30
0.0625
 70
     32
  0
VERTEX
  8
MY3DLAYER
10
7.21779802096177
20
4.18324067611494
30
0.0
 70
     32
  0
SEQEND
  0
POLYLINE
 8
Group#1
 66
     1
70
    8
 10
0.0
 20
 0.0
 30
0.0
  0
VERTEX
  8
MY3DLAYER
10
7.22224164140181
20
4.16543142893647
30
0.0
 70
     32
  0
VERTEX
  8
MY3DLAYER
10
7.21779802096177
20
4.18324067611494
30
0.0
 70
     32
  0
VERTEX
  8
MY3DLAYER
10
7.21779802096177
20
4.18324067611494
30
0.0625
 70
     32
  0
VERTEX
  8
MY3DLAYER
10
7.22224164140181
20
4.16543142893647
30
0.0625
 70
     32
  0
VERTEX
  8
MY3DLAYER
10
7.22224164140181
20
4.16543142893647
30
0.0
 70
     32
  0
SEQEND
  0
POLYLINE
 8
Group#1
 66
     1
70
    8
 10
0.0
 20
 0.0
 30
0.0
  0
VERTEX
  8
MY3DLAYER
10
7.2311432214958
20
4.14937911073911
30
0.0
 70
     32
  0
VERTEX
  8
MY3DLAYER
10
7.22224164140181
20
4.16543142893647
30
0.0
 70
     32
  0
VERTEX
  8
MY3DLAYER
10
7.22224164140181
20
4.16543142893647
30
0.0625
 70
     32
  0
VERTEX
  8
MY3DLAYER
10
7.2311432214958
20
4.14937911073911
30
0.0625
 70
     32
  0
VERTEX
  8
MY3DLAYER
10
7.2311432214958
20
4.14937911073911
30
0.0
 70
     32
  0
SEQEND
  0
POLYLINE
 8
Group#1
 66
     1
70
    8
 10
0.0
 20
 0.0
 30
0.0
  0
VERTEX
  8
MY3DLAYER
10
7.24389613327089
20
4.1361776604803
30
0.0
 70
     32
  0
VERTEX
  8
MY3DLAYER
10
7.2311432214958
20
4.14937911073911
30
0.0
 70
     32
  0
VERTEX
  8
MY3DLAYER
10
7.2311432214958
20
4.14937911073911
30
0.0625
 70
     32
  0
VERTEX
  8
MY3DLAYER
10
7.24389613327089
20
4.1361776604803
30
0.0625
 70
     32
  0
VERTEX
  8
MY3DLAYER
10
7.24389613327089
20
4.1361776604803
30
0.0
 70
     32
  0
SEQEND
  0
POLYLINE
 8
Group#1
 66
     1
70
    8
 10
0.0
 20
 0.0
 30
0.0
  0
VERTEX
  8
MY3DLAYER
10
7.25963128686478
20
4.12672673517875
30
0.0
 70
     32
  0
VERTEX
  8
MY3DLAYER
10
7.24389613327089
20
4.1361776604803
30
0.0
 70
     32
  0
VERTEX
  8
MY3DLAYER
10
7.24389613327089
20
4.1361776604803
30
0.0625
 70
     32
  0
VERTEX
  8
MY3DLAYER
10
7.25963128686478
20
4.12672673517875
30
0.0625
 70
     32
  0
VERTEX
  8
MY3DLAYER
10
7.25963128686478
20
4.12672673517875
30
0.0
 70
     32
  0
SEQEND
  0
POLYLINE
 8
Group#1
 66
     1
70
    8
 10
0.0
 20
 0.0
 30
0.0
  0
VERTEX
  8
MY3DLAYER
10
6.7433633295414
20
3.13660556365957
30
0.0
 70
     32
  0
VERTEX
  8
MY3DLAYER
10
6.7307393221054
20
3.14993033322361
30
0.0
 70
     32
  0
VERTEX
  8
MY3DLAYER
10
6.7307393221054
20
3.14993033322361
30
0.0625
 70
     32
  0
VERTEX
  8
MY3DLAYER
10
6.7433633295414
20
3.13660556365957
30
0.0625
 70
     32
  0
VERTEX
  8
MY3DLAYER
10
6.7433633295414
20
3.13660556365957
30
0.0
 70
     32
  0
SEQEND
  0
POLYLINE
 8
Group#1
 66
     1
70
    8
 10
0.0
 20
 0.0
 30
0.0
  0
VERTEX
  8
MY3DLAYER
10
6.75900588848987
20
3.12700215815827
30
0.0
 70
     32
  0
VERTEX
  8
MY3DLAYER
10
6.7433633295414
20
3.13660556365957
30
0.0
 70
     32
  0
VERTEX
  8
MY3DLAYER
10
6.7433633295414
20
3.13660556365957
30
0.0625
 70
     32
  0
VERTEX
  8
MY3DLAYER
10
6.75900588848987
20
3.12700215815827
30
0.0625
 70
     32
  0
VERTEX
  8
MY3DLAYER
10
6.75900588848987
20
3.12700215815827
30
0.0
 70
     32
  0
SEQEND
  0
POLYLINE
 8
Group#1
 66
     1
70
    8
 10
0.0
 20
 0.0
 30
0.0
  0
VERTEX
  8
MY3DLAYER
10
6.97633151914115
20
4.2640248616334
30
0.0
 70
     32
  0
VERTEX
  8
MY3DLAYER
10
6.93256163632493
20
4.28593462423605
30
0.0
 70
     32
  0
VERTEX
  8
MY3DLAYER
10
6.93256163632493
20
4.28593462423605
30
0.0625
 70
     32
  0
VERTEX
  8
MY3DLAYER
10
6.97633151914115
20
4.2640248616334
30
0.0625
 70
     32
  0
VERTEX
  8
MY3DLAYER
10
6.97633151914115
20
4.2640248616334
30
0.0
 70
     32
  0
SEQEND
  0
POLYLINE
 8
Group#1
 66
     1
70
    8
 10
0.0
 20
 0.0
 30
0.0
  0
VERTEX
  8
MY3DLAYER
10
7.02428064320222
20
4.25419013536238
30
0.0
 70
     32
  0
VERTEX
  8
MY3DLAYER
10
6.97633151914115
20
4.2640248616334
30
0.0
 70
     32
  0
VERTEX
  8
MY3DLAYER
10
6.97633151914115
20
4.2640248616334
30
0.0625
 70
     32
  0
VERTEX
  8
MY3DLAYER
10
7.02428064320222
20
4.25419013536238
30
0.0625
 70
     32
  0
VERTEX
  8
MY3DLAYER
10
7.02428064320222
20
4.25419013536238
30
0.0
 70
     32
  0
SEQEND
  0
POLYLINE
 8
Group#1
 66
     1
70
    8
 10
0.0
 20
 0.0
 30
0.0
  0
VERTEX
  8
MY3DLAYER
10
7.07314135494306
20
4.25710066576571
30
0.0
 70
     32
  0
VERTEX
  8
MY3DLAYER
10
7.02428064320222
20
4.25419013536238
30
0.0
 70
     32
  0
VERTEX
  8
MY3DLAYER
10
7.02428064320222
20
4.25419013536238
30
0.0625
 70
     32
  0
VERTEX
  8
MY3DLAYER
10
7.07314135494306
20
4.25710066576571
30
0.0625
 70
     32
  0
VERTEX
  8
MY3DLAYER
10
7.07314135494306
20
4.25710066576571
30
0.0
 70
     32
  0
SEQEND
  0
POLYLINE
 8
Group#1
 66
     1
70
    8
 10
0.0
 20
 0.0
 30
0.0
  0
VERTEX
  8
MY3DLAYER
10
7.11958387760466
20
4.27255810500628
30
0.0
 70
     32
  0
VERTEX
  8
MY3DLAYER
10
7.07314135494306
20
4.25710066576571
30
0.0
 70
     32
  0
VERTEX
  8
MY3DLAYER
10
7.07314135494306
20
4.25710066576571
30
0.0625
 70
     32
  0
VERTEX
  8
MY3DLAYER
10
7.11958387760466
20
4.27255810500628
30
0.0625
 70
     32
  0
VERTEX
  8
MY3DLAYER
10
7.11958387760466
20
4.27255810500628
30
0.0
 70
     32
  0
SEQEND
  0
POLYLINE
 8
Group#1
 66
     1
70
    8
 10
0.0
 20
 0.0
 30
0.0
  0
VERTEX
  8
MY3DLAYER
10
7.16044323001755
20
4.29950905414448
30
0.0
 70
     32
  0
VERTEX
  8
MY3DLAYER
10
7.11958387760466
20
4.27255810500628
30
0.0
 70
     32
  0
VERTEX
  8
MY3DLAYER
10
7.11958387760466
20
4.27255810500628
30
0.0625
 70
     32
  0
VERTEX
  8
MY3DLAYER
10
7.16044323001755
20
4.29950905414448
30
0.0625
 70
     32
  0
VERTEX
  8
MY3DLAYER
10
7.16044323001755
20
4.29950905414448
30
0.0
 70
     32
  0
SEQEND
  0
POLYLINE
 8
Group#1
 66
     1
70
    8
 10
0.0
 20
 0.0
 30
0.0
  0
VERTEX
  8
MY3DLAYER
10
6.93256163632493
20
4.28593462423605
30
0.0
 70
     32
  0
VERTEX
  8
MY3DLAYER
10
6.89595383993434
20
4.31842630905655
30
0.0
 70
     32
  0
VERTEX
  8
MY3DLAYER
10
6.89595383993434
20
4.31842630905655
30
0.0625
 70
     32
  0
VERTEX
  8
MY3DLAYER
10
6.93256163632493
20
4.28593462423605
30
0.0625
 70
     32
  0
VERTEX
  8
MY3DLAYER
10
6.93256163632493
20
4.28593462423605
30
0.0
 70
     32
  0
SEQEND
  0
POLYLINE
 8
Group#1
 66
     1
70
    8
 10
0.0
 20
 0.0
 30
0.0
  0
VERTEX
  8
MY3DLAYER
10
6.60464446053976
20
4.65996237664212
30
0.0
 70
     32
  0
VERTEX
  8
MY3DLAYER
10
6.55469424928745
20
4.53937189919338
30
0.0
 70
     32
  0
VERTEX
  8
MY3DLAYER
10
6.55469424928745
20
4.53937189919338
30
0.0625
 70
     32
  0
VERTEX
  8
MY3DLAYER
10
6.60464446053976
20
4.65996237664212
30
0.0625
 70
     32
  0
VERTEX
  8
MY3DLAYER
10
6.60464446053976
20
4.65996237664212
30
0.0
 70
     32
  0
SEQEND
  0
POLYLINE
 8
Group#1
 66
     1
70
    8
 10
0.0
 20
 0.0
 30
0.0
  0
VERTEX
  8
MY3DLAYER
10
6.68410377183871
20
4.76351576723539
30
0.0
 70
     32
  0
VERTEX
  8
MY3DLAYER
10
6.60464446053976
20
4.65996237664212
30
0.0
 70
     32
  0
VERTEX
  8
MY3DLAYER
10
6.60464446053976
20
4.65996237664212
30
0.0625
 70
     32
  0
VERTEX
  8
MY3DLAYER
10
6.68410377183871
20
4.76351576723539
30
0.0625
 70
     32
  0
VERTEX
  8
MY3DLAYER
10
6.68410377183871
20
4.76351576723539
30
0.0
 70
     32
  0
SEQEND
  0
POLYLINE
 8
Group#1
 66
     1
70
    8
 10
0.0
 20
 0.0
 30
0.0
  0
VERTEX
  8
MY3DLAYER
10
6.78765716243198
20
4.84297507853434
30
0.0
 70
     32
  0
VERTEX
  8
MY3DLAYER
10
6.68410377183871
20
4.76351576723539
30
0.0
 70
     32
  0
VERTEX
  8
MY3DLAYER
10
6.68410377183871
20
4.76351576723539
30
0.0625
 70
     32
  0
VERTEX
  8
MY3DLAYER
10
6.78765716243198
20
4.84297507853434
30
0.0625
 70
     32
  0
VERTEX
  8
MY3DLAYER
10
6.78765716243198
20
4.84297507853434
30
0.0
 70
     32
  0
SEQEND
  0
POLYLINE
 8
Group#1
 66
     1
70
    8
 10
0.0
 20
 0.0
 30
0.0
  0
VERTEX
  8
MY3DLAYER
10
7.35214280389535
20
4.16318650107492
30
0.0
 70
     32
  0
VERTEX
  8
MY3DLAYER
10
7.3426918785938
20
4.14745134748102
30
0.0
 70
     32
  0
VERTEX
  8
MY3DLAYER
10
7.3426918785938
20
4.14745134748102
30
0.0625
 70
     32
  0
VERTEX
  8
MY3DLAYER
10
7.35214280389535
20
4.16318650107492
30
0.0625
 70
     32
  0
VERTEX
  8
MY3DLAYER
10
7.35214280389535
20
4.16318650107492
30
0.0
 70
     32
  0
SEQEND
  0
POLYLINE
 8
Group#1
 66
     1
70
    8
 10
0.0
 20
 0.0
 30
0.0
  0
VERTEX
  8
MY3DLAYER
10
7.35719913929873
20
4.18083157177377
30
0.0
 70
     32
  0
VERTEX
  8
MY3DLAYER
10
7.35214280389535
20
4.16318650107492
30
0.0
 70
     32
  0
VERTEX
  8
MY3DLAYER
10
7.35214280389535
20
4.16318650107492
30
0.0625
 70
     32
  0
VERTEX
  8
MY3DLAYER
10
7.35719913929873
20
4.18083157177377
30
0.0625
 70
     32
  0
VERTEX
  8
MY3DLAYER
10
7.35719913929873
20
4.18083157177377
30
0.0
 70
     32
  0
SEQEND
  0
POLYLINE
 8
Group#1
 66
     1
70
    8
 10
0.0
 20
 0.0
 30
0.0
  0
VERTEX
  8
MY3DLAYER
10
6.84226397541453
20
3.14691854375154
30
0.0
 70
     32
  0
VERTEX
  8
MY3DLAYER
10
6.82893920585049
20
3.13429453631554
30
0.0
 70
     32
  0
VERTEX
  8
MY3DLAYER
10
6.82893920585049
20
3.13429453631554
30
0.0625
 70
     32
  0
VERTEX
  8
MY3DLAYER
10
6.84226397541453
20
3.14691854375154
30
0.0625
 70
     32
  0
VERTEX
  8
MY3DLAYER
10
6.84226397541453
20
3.14691854375154
30
0.0
 70
     32
  0
SEQEND
  0
POLYLINE
 8
Group#1
 66
     1
70
    8
 10
0.0
 20
 0.0
 30
0.0
  0
VERTEX
  8
MY3DLAYER
10
7.34991389335366
20
3.15853291656097
30
0.0
 70
     32
  0
VERTEX
  8
MY3DLAYER
10
7.33933448003689
20
3.1435332145122
30
0.0
 70
     32
  0
VERTEX
  8
MY3DLAYER
10
7.33933448003689
20
3.1435332145122
30
0.0625
 70
     32
  0
VERTEX
  8
MY3DLAYER
10
7.34991389335366
20
3.15853291656097
30
0.0625
 70
     32
  0
VERTEX
  8
MY3DLAYER
10
7.34991389335366
20
3.15853291656097
30
0.0
 70
     32
  0
SEQEND
  0
POLYLINE
 8
Group#1
 66
     1
70
    8
 10
0.0
 20
 0.0
 30
0.0
  0
VERTEX
  8
MY3DLAYER
10
7.35625061334223
20
3.17575966980891
30
0.0
 70
     32
  0
VERTEX
  8
MY3DLAYER
10
7.34991389335366
20
3.15853291656097
30
0.0
 70
     32
  0
VERTEX
  8
MY3DLAYER
10
7.34991389335366
20
3.15853291656097
30
0.0625
 70
     32
  0
VERTEX
  8
MY3DLAYER
10
7.35625061334223
20
3.17575966980891
30
0.0625
 70
     32
  0
VERTEX
  8
MY3DLAYER
10
7.35625061334223
20
3.17575966980891
30
0.0
 70
     32
  0
SEQEND
  0
POLYLINE
 8
Group#1
 66
     1
70
    8
 10
0.0
 20
 0.0
 30
0.0
  0
VERTEX
  8
MY3DLAYER
10
6.7776371275983
20
3.62161750213126
30
0.0
 70
     32
  0
VERTEX
  8
MY3DLAYER
10
6.75996607304088
20
3.62658226582228
30
0.0
 70
     32
  0
VERTEX
  8
MY3DLAYER
10
6.75996607304088
20
3.62658226582228
30
0.0625
 70
     32
  0
VERTEX
  8
MY3DLAYER
10
6.7776371275983
20
3.62161750213126
30
0.0625
 70
     32
  0
VERTEX
  8
MY3DLAYER
10
6.7776371275983
20
3.62161750213126
30
0.0
 70
     32
  0
SEQEND
  0
POLYLINE
 8
Group#1
 66
     1
70
    8
 10
0.0
 20
 0.0
 30
0.0
  0
VERTEX
  8
MY3DLAYER
10
6.79599103097074
20
3.62139551412719
30
0.0
 70
     32
  0
VERTEX
  8
MY3DLAYER
10
6.7776371275983
20
3.62161750213126
30
0.0
 70
     32
  0
VERTEX
  8
MY3DLAYER
10
6.7776371275983
20
3.62161750213126
30
0.0625
 70
     32
  0
VERTEX
  8
MY3DLAYER
10
6.79599103097074
20
3.62139551412719
30
0.0625
 70
     32
  0
VERTEX
  8
MY3DLAYER
10
6.79599103097074
20
3.62139551412719
30
0.0
 70
     32
  0
SEQEND
  0
POLYLINE
 8
Group#1
 66
     1
70
    8
 10
0.0
 20
 0.0
 30
0.0
  0
VERTEX
  8
MY3DLAYER
10
6.84395340471306
20
3.73333814976595
30
0.0
 70
     32
  0
VERTEX
  8
MY3DLAYER
10
6.85293810914841
20
3.71733220918478
30
0.0
 70
     32
  0
VERTEX
  8
MY3DLAYER
10
6.85293810914841
20
3.71733220918478
30
0.0625
 70
     32
  0
VERTEX
  8
MY3DLAYER
10
6.84395340471306
20
3.73333814976595
30
0.0625
 70
     32
  0
VERTEX
  8
MY3DLAYER
10
6.84395340471306
20
3.73333814976595
30
0.0
 70
     32
  0
SEQEND
  0
POLYLINE
 8
Group#1
 66
     1
70
    8
 10
0.0
 20
 0.0
 30
0.0
  0
VERTEX
  8
MY3DLAYER
10
6.83113220440018
20
3.74647328852487
30
0.0
 70
     32
  0
VERTEX
  8
MY3DLAYER
10
6.84395340471306
20
3.73333814976595
30
0.0
 70
     32
  0
VERTEX
  8
MY3DLAYER
10
6.84395340471306
20
3.73333814976595
30
0.0625
 70
     32
  0
VERTEX
  8
MY3DLAYER
10
6.83113220440018
20
3.74647328852487
30
0.0625
 70
     32
  0
VERTEX
  8
MY3DLAYER
10
6.83113220440018
20
3.74647328852487
30
0.0
 70
     32
  0
SEQEND
  0
POLYLINE
 8
Group#1
 66
     1
70
    8
 10
0.0
 20
 0.0
 30
0.0
  0
VERTEX
  8
MY3DLAYER
10
6.81534825182308
20
3.75584248746195
30
0.0
 70
     32
  0
VERTEX
  8
MY3DLAYER
10
6.83113220440018
20
3.74647328852487
30
0.0
 70
     32
  0
VERTEX
  8
MY3DLAYER
10
6.83113220440018
20
3.74647328852487
30
0.0625
 70
     32
  0
VERTEX
  8
MY3DLAYER
10
6.81534825182308
20
3.75584248746195
30
0.0625
 70
     32
  0
VERTEX
  8
MY3DLAYER
10
6.81534825182308
20
3.75584248746195
30
0.0
 70
     32
  0
SEQEND
  0
POLYLINE
 8
Group#1
 66
     1
70
    8
 10
0.0
 20
 0.0
 30
0.0
  0
VERTEX
  8
MY3DLAYER
10
6.79767719726566
20
3.76080725115297
30
0.0
 70
     32
  0
VERTEX
  8
MY3DLAYER
10
6.81534825182308
20
3.75584248746195
30
0.0
 70
     32
  0
VERTEX
  8
MY3DLAYER
10
6.81534825182308
20
3.75584248746195
30
0.0625
 70
     32
  0
VERTEX
  8
MY3DLAYER
10
6.79767719726566
20
3.76080725115297
30
0.0625
 70
     32
  0
VERTEX
  8
MY3DLAYER
10
6.79767719726566
20
3.76080725115297
30
0.0
 70
     32
  0
SEQEND
  0
POLYLINE
 8
Group#1
 66
     1
70
    8
 10
0.0
 20
 0.0
 30
0.0
  0
VERTEX
  8
MY3DLAYER
10
6.72199417142648
20
3.16606840582482
30
0.0
 70
     32
  0
VERTEX
  8
MY3DLAYER
10
6.71772384507136
20
3.18391999848485
30
0.0
 70
     32
  0
VERTEX
  8
MY3DLAYER
10
6.71772384507136
20
3.18391999848485
30
0.0625
 70
     32
  0
VERTEX
  8
MY3DLAYER
10
6.72199417142648
20
3.16606840582482
30
0.0625
 70
     32
  0
VERTEX
  8
MY3DLAYER
10
6.72199417142648
20
3.16606840582482
30
0.0
 70
     32
  0
SEQEND
  0
POLYLINE
 8
Group#1
 66
     1
70
    8
 10
0.0
 20
 0.0
 30
0.0
  0
VERTEX
  8
MY3DLAYER
10
6.7307393221054
20
3.14993033322361
30
0.0
 70
     32
  0
VERTEX
  8
MY3DLAYER
10
6.72199417142648
20
3.16606840582482
30
0.0
 70
     32
  0
VERTEX
  8
MY3DLAYER
10
6.72199417142648
20
3.16606840582482
30
0.0625
 70
     32
  0
VERTEX
  8
MY3DLAYER
10
6.7307393221054
20
3.14993033322361
30
0.0625
 70
     32
  0
VERTEX
  8
MY3DLAYER
10
6.7307393221054
20
3.14993033322361
30
0.0
 70
     32
  0
SEQEND
  0
POLYLINE
 8
Group#1
 66
     1
70
    8
 10
0.0
 20
 0.0
 30
0.0
  0
VERTEX
  8
MY3DLAYER
10
6.86900289079615
20
4.35928566146944
30
0.0
 70
     32
  0
VERTEX
  8
MY3DLAYER
10
6.85354545155558
20
4.40572818413104
30
0.0
 70
     32
  0
VERTEX
  8
MY3DLAYER
10
6.85354545155558
20
4.40572818413104
30
0.0625
 70
     32
  0
VERTEX
  8
MY3DLAYER
10
6.86900289079615
20
4.35928566146944
30
0.0625
 70
     32
  0
VERTEX
  8
MY3DLAYER
10
6.86900289079615
20
4.35928566146944
30
0.0
 70
     32
  0
SEQEND
  0
POLYLINE
 8
Group#1
 66
     1
70
    8
 10
0.0
 20
 0.0
 30
0.0
  0
VERTEX
  8
MY3DLAYER
10
6.89595383993434
20
4.31842630905655
30
0.0
 70
     32
  0
VERTEX
  8
MY3DLAYER
10
6.86900289079615
20
4.35928566146944
30
0.0
 70
     32
  0
VERTEX
  8
MY3DLAYER
10
6.86900289079615
20
4.35928566146944
30
0.0625
 70
     32
  0
VERTEX
  8
MY3DLAYER
10
6.89595383993434
20
4.31842630905655
30
0.0625
 70
     32
  0
VERTEX
  8
MY3DLAYER
10
6.89595383993434
20
4.31842630905655
30
0.0
 70
     32
  0
SEQEND
  0
POLYLINE
 8
Group#1
 66
     1
70
    8
 10
0.0
 20
 0.0
 30
0.0
  0
VERTEX
  8
MY3DLAYER
10
7.09898280572282
20
4.61839989165084
30
0.0
 70
     32
  0
VERTEX
  8
MY3DLAYER
10
7.14275268853903
20
4.59649012904819
30
0.0
 70
     32
  0
VERTEX
  8
MY3DLAYER
10
7.14275268853903
20
4.59649012904819
30
0.0625
 70
     32
  0
VERTEX
  8
MY3DLAYER
10
7.09898280572282
20
4.61839989165084
30
0.0625
 70
     32
  0
VERTEX
  8
MY3DLAYER
10
7.09898280572282
20
4.61839989165084
30
0.0
 70
     32
  0
SEQEND
  0
POLYLINE
 8
Group#1
 66
     1
70
    8
 10
0.0
 20
 0.0
 30
0.0
  0
VERTEX
  8
MY3DLAYER
10
7.31343811013763
20
4.12579685561195
30
0.0
 70
     32
  0
VERTEX
  8
MY3DLAYER
10
7.29562886295917
20
4.12135323517191
30
0.0
 70
     32
  0
VERTEX
  8
MY3DLAYER
10
7.29562886295917
20
4.12135323517191
30
0.0625
 70
     32
  0
VERTEX
  8
MY3DLAYER
10
7.31343811013763
20
4.12579685561195
30
0.0625
 70
     32
  0
VERTEX
  8
MY3DLAYER
10
7.31343811013763
20
4.12579685561195
30
0.0
 70
     32
  0
SEQEND
  0
POLYLINE
 8
Group#1
 66
     1
70
    8
 10
0.0
 20
 0.0
 30
0.0
  0
VERTEX
  8
MY3DLAYER
10
7.32949042833499
20
4.13469843570594
30
0.0
 70
     32
  0
VERTEX
  8
MY3DLAYER
10
7.31343811013763
20
4.12579685561195
30
0.0
 70
     32
  0
VERTEX
  8
MY3DLAYER
10
7.31343811013763
20
4.12579685561195
30
0.0625
 70
     32
  0
VERTEX
  8
MY3DLAYER
10
7.32949042833499
20
4.13469843570594
30
0.0625
 70
     32
  0
VERTEX
  8
MY3DLAYER
10
7.32949042833499
20
4.13469843570594
30
0.0
 70
     32
  0
SEQEND
  0
POLYLINE
 8
Group#1
 66
     1
70
    8
 10
0.0
 20
 0.0
 30
0.0
  0
VERTEX
  8
MY3DLAYER
10
7.3426918785938
20
4.14745134748102
30
0.0
 70
     32
  0
VERTEX
  8
MY3DLAYER
10
7.32949042833499
20
4.13469843570594
30
0.0
 70
     32
  0
VERTEX
  8
MY3DLAYER
10
7.32949042833499
20
4.13469843570594
30
0.0625
 70
     32
  0
VERTEX
  8
MY3DLAYER
10
7.3426918785938
20
4.14745134748102
30
0.0625
 70
     32
  0
VERTEX
  8
MY3DLAYER
10
7.3426918785938
20
4.14745134748102
30
0.0
 70
     32
  0
SEQEND
  0
POLYLINE
 8
Group#1
 66
     1
70
    8
 10
0.0
 20
 0.0
 30
0.0
  0
VERTEX
  8
MY3DLAYER
10
7.35751630390219
20
4.1991840771693
30
0.0
 70
     32
  0
VERTEX
  8
MY3DLAYER
10
7.35719913929873
20
4.18083157177377
30
0.0
 70
     32
  0
VERTEX
  8
MY3DLAYER
10
7.35719913929873
20
4.18083157177377
30
0.0625
 70
     32
  0
VERTEX
  8
MY3DLAYER
10
7.35751630390219
20
4.1991840771693
30
0.0625
 70
     32
  0
VERTEX
  8
MY3DLAYER
10
7.35751630390219
20
4.1991840771693
30
0.0
 70
     32
  0
SEQEND
  0
POLYLINE
 8
Group#1
 66
     1
70
    8
 10
0.0
 20
 0.0
 30
0.0
  0
VERTEX
  8
MY3DLAYER
10
7.35307268346215
20
4.21699332434777
30
0.0
 70
     32
  0
VERTEX
  8
MY3DLAYER
10
7.35751630390219
20
4.1991840771693
30
0.0
 70
     32
  0
VERTEX
  8
MY3DLAYER
10
7.35751630390219
20
4.1991840771693
30
0.0625
 70
     32
  0
VERTEX
  8
MY3DLAYER
10
7.35307268346215
20
4.21699332434777
30
0.0625
 70
     32
  0
VERTEX
  8
MY3DLAYER
10
7.35307268346215
20
4.21699332434777
30
0.0
 70
     32
  0
SEQEND
  0
POLYLINE
 8
Group#1
 66
     1
70
    8
 10
0.0
 20
 0.0
 30
0.0
  0
VERTEX
  8
MY3DLAYER
10
7.34417110336816
20
4.23304564254513
30
0.0
 70
     32
  0
VERTEX
  8
MY3DLAYER
10
7.35307268346215
20
4.21699332434777
30
0.0
 70
     32
  0
VERTEX
  8
MY3DLAYER
10
7.35307268346215
20
4.21699332434777
30
0.0625
 70
     32
  0
VERTEX
  8
MY3DLAYER
10
7.34417110336816
20
4.23304564254513
30
0.0625
 70
     32
  0
VERTEX
  8
MY3DLAYER
10
7.34417110336816
20
4.23304564254513
30
0.0
 70
     32
  0
SEQEND
  0
POLYLINE
 8
Group#1
 66
     1
70
    8
 10
0.0
 20
 0.0
 30
0.0
  0
VERTEX
  8
MY3DLAYER
10
7.33141819159308
20
4.24624709280394
30
0.0
 70
     32
  0
VERTEX
  8
MY3DLAYER
10
7.34417110336816
20
4.23304564254513
30
0.0
 70
     32
  0
VERTEX
  8
MY3DLAYER
10
7.34417110336816
20
4.23304564254513
30
0.0625
 70
     32
  0
VERTEX
  8
MY3DLAYER
10
7.33141819159308
20
4.24624709280394
30
0.0625
 70
     32
  0
VERTEX
  8
MY3DLAYER
10
7.33141819159308
20
4.24624709280394
30
0.0
 70
     32
  0
SEQEND
  0
POLYLINE
 8
Group#1
 66
     1
70
    8
 10
0.0
 20
 0.0
 30
0.0
  0
VERTEX
  8
MY3DLAYER
10
7.31568303799918
20
4.25569801810548
30
0.0
 70
     32
  0
VERTEX
  8
MY3DLAYER
10
7.33141819159308
20
4.24624709280394
30
0.0
 70
     32
  0
VERTEX
  8
MY3DLAYER
10
7.33141819159308
20
4.24624709280394
30
0.0625
 70
     32
  0
VERTEX
  8
MY3DLAYER
10
7.31568303799918
20
4.25569801810548
30
0.0625
 70
     32
  0
VERTEX
  8
MY3DLAYER
10
7.31568303799918
20
4.25569801810548
30
0.0
 70
     32
  0
SEQEND
  0
POLYLINE
 8
Group#1
 66
     1
70
    8
 10
0.0
 20
 0.0
 30
0.0
  0
VERTEX
  8
MY3DLAYER
10
6.85332015343748
20
3.21635634745942
30
0.0
 70
     32
  0
VERTEX
  8
MY3DLAYER
10
6.8575904797926
20
3.19850475479939
30
0.0
 70
     32
  0
VERTEX
  8
MY3DLAYER
10
6.8575904797926
20
3.19850475479939
30
0.0625
 70
     32
  0
VERTEX
  8
MY3DLAYER
10
6.85332015343748
20
3.21635634745942
30
0.0625
 70
     32
  0
VERTEX
  8
MY3DLAYER
10
6.85332015343748
20
3.21635634745942
30
0.0
 70
     32
  0
SEQEND
  0
POLYLINE
 8
Group#1
 66
     1
70
    8
 10
0.0
 20
 0.0
 30
0.0
  0
VERTEX
  8
MY3DLAYER
10
6.84457500275856
20
3.23249442006063
30
0.0
 70
     32
  0
VERTEX
  8
MY3DLAYER
10
6.85332015343748
20
3.21635634745942
30
0.0
 70
     32
  0
VERTEX
  8
MY3DLAYER
10
6.85332015343748
20
3.21635634745942
30
0.0625
 70
     32
  0
VERTEX
  8
MY3DLAYER
10
6.84457500275856
20
3.23249442006063
30
0.0625
 70
     32
  0
VERTEX
  8
MY3DLAYER
10
6.84457500275856
20
3.23249442006063
30
0.0
 70
     32
  0
SEQEND
  0
POLYLINE
 8
Group#1
 66
     1
70
    8
 10
0.0
 20
 0.0
 30
0.0
  0
VERTEX
  8
MY3DLAYER
10
6.83195099532256
20
3.24581918962467
30
0.0
 70
     32
  0
VERTEX
  8
MY3DLAYER
10
6.84457500275856
20
3.23249442006063
30
0.0
 70
     32
  0
VERTEX
  8
MY3DLAYER
10
6.84457500275856
20
3.23249442006063
30
0.0625
 70
     32
  0
VERTEX
  8
MY3DLAYER
10
6.83195099532256
20
3.24581918962467
30
0.0625
 70
     32
  0
VERTEX
  8
MY3DLAYER
10
6.83195099532256
20
3.24581918962467
30
0.0
 70
     32
  0
SEQEND
  0
POLYLINE
 8
Group#1
 66
     1
70
    8
 10
0.0
 20
 0.0
 30
0.0
  0
VERTEX
  8
MY3DLAYER
10
6.81630843637409
20
3.25542259512597
30
0.0
 70
     32
  0
VERTEX
  8
MY3DLAYER
10
6.83195099532256
20
3.24581918962467
30
0.0
 70
     32
  0
VERTEX
  8
MY3DLAYER
10
6.83195099532256
20
3.24581918962467
30
0.0625
 70
     32
  0
VERTEX
  8
MY3DLAYER
10
6.81630843637409
20
3.25542259512597
30
0.0625
 70
     32
  0
VERTEX
  8
MY3DLAYER
10
6.81630843637409
20
3.25542259512597
30
0.0
 70
     32
  0
SEQEND
  0
POLYLINE
 8
Group#1
 66
     1
70
    8
 10
0.0
 20
 0.0
 30
0.0
  0
VERTEX
  8
MY3DLAYER
10
6.79871334045493
20
3.26065018035
30
0.0
 70
     32
  0
VERTEX
  8
MY3DLAYER
10
6.81630843637409
20
3.25542259512597
30
0.0
 70
     32
  0
VERTEX
  8
MY3DLAYER
10
6.81630843637409
20
3.25542259512597
30
0.0625
 70
     32
  0
VERTEX
  8
MY3DLAYER
10
6.79871334045493
20
3.26065018035
30
0.0625
 70
     32
  0
VERTEX
  8
MY3DLAYER
10
6.79871334045493
20
3.26065018035
30
0.0
 70
     32
  0
SEQEND
  0
POLYLINE
 8
Group#1
 66
     1
70
    8
 10
0.0
 20
 0.0
 30
0.0
  0
VERTEX
  8
MY3DLAYER
10
6.78036478427471
20
3.26114569400274
30
0.0
 70
     32
  0
VERTEX
  8
MY3DLAYER
10
6.79871334045493
20
3.26065018035
30
0.0
 70
     32
  0
VERTEX
  8
MY3DLAYER
10
6.79871334045493
20
3.26065018035
30
0.0625
 70
     32
  0
VERTEX
  8
MY3DLAYER
10
6.78036478427471
20
3.26114569400274
30
0.0625
 70
     32
  0
VERTEX
  8
MY3DLAYER
10
6.78036478427471
20
3.26114569400274
30
0.0
 70
     32
  0
SEQEND
  0
POLYLINE
 8
Group#1
 66
     1
70
    8
 10
0.0
 20
 0.0
 30
0.0
  0
VERTEX
  8
MY3DLAYER
10
6.76251319161468
20
3.25687536764762
30
0.0
 70
     32
  0
VERTEX
  8
MY3DLAYER
10
6.78036478427471
20
3.26114569400274
30
0.0
 70
     32
  0
VERTEX
  8
MY3DLAYER
10
6.78036478427471
20
3.26114569400274
30
0.0625
 70
     32
  0
VERTEX
  8
MY3DLAYER
10
6.76251319161468
20
3.25687536764762
30
0.0625
 70
     32
  0
VERTEX
  8
MY3DLAYER
10
6.76251319161468
20
3.25687536764762
30
0.0
 70
     32
  0
SEQEND
  0
POLYLINE
 8
Group#1
 66
     1
70
    8
 10
0.0
 20
 0.0
 30
0.0
  0
VERTEX
  8
MY3DLAYER
10
6.74637511901347
20
3.2481302169687
30
0.0
 70
     32
  0
VERTEX
  8
MY3DLAYER
10
6.76251319161468
20
3.25687536764762
30
0.0
 70
     32
  0
VERTEX
  8
MY3DLAYER
10
6.76251319161468
20
3.25687536764762
30
0.0625
 70
     32
  0
VERTEX
  8
MY3DLAYER
10
6.74637511901347
20
3.2481302169687
30
0.0625
 70
     32
  0
VERTEX
  8
MY3DLAYER
10
6.74637511901347
20
3.2481302169687
30
0.0
 70
     32
  0
SEQEND
  0
POLYLINE
 8
Group#1
 66
     1
70
    8
 10
0.0
 20
 0.0
 30
0.0
  0
VERTEX
  8
MY3DLAYER
10
7.22176887330839
20
4.4766965691532
30
0.0
 70
     32
  0
VERTEX
  8
MY3DLAYER
10
7.22467940371172
20
4.42783585741236
30
0.0
 70
     32
  0
VERTEX
  8
MY3DLAYER
10
7.22467940371172
20
4.42783585741236
30
0.0625
 70
     32
  0
VERTEX
  8
MY3DLAYER
10
7.22176887330839
20
4.4766965691532
30
0.0625
 70
     32
  0
VERTEX
  8
MY3DLAYER
10
7.22176887330839
20
4.4766965691532
30
0.0
 70
     32
  0
SEQEND
  0
POLYLINE
 8
Group#1
 66
     1
70
    8
 10
0.0
 20
 0.0
 30
0.0
  0
VERTEX
  8
MY3DLAYER
10
7.2148446774407
20
4.37988673335129
30
0.0
 70
     32
  0
VERTEX
  8
MY3DLAYER
10
7.19293491483806
20
4.33611685053507
30
0.0
 70
     32
  0
VERTEX
  8
MY3DLAYER
10
7.19293491483806
20
4.33611685053507
30
0.0625
 70
     32
  0
VERTEX
  8
MY3DLAYER
10
7.2148446774407
20
4.37988673335129
30
0.0625
 70
     32
  0
VERTEX
  8
MY3DLAYER
10
7.2148446774407
20
4.37988673335129
30
0.0
 70
     32
  0
SEQEND
 0
ENDSEC
 0
EOF
