999
dxflib 2.2.0.0
  0
SECTION
  2
HEADER
  9
$ACADVER
  1
AC1015
  9
$HANDSEED
  5
FFFF
  9
$DIMASZ
 40
0.1
  9
$PLIMMIN
 10
0.0
 20
0.0
  9
$DIMEXE
 40
0.05
  9
$DIMGAP
 40
0.025
  9
$PLIMMAX
 10
8.2677165354330722
 20
11.6929133858267722
  9
$INSUNITS
 70
1
  9
$DIMSTYLE
  2
Standard
  9
$DIMEXO
 40
0.025
  9
$DIMTXT
 40
0.1
  0
ENDSEC
  0
SECTION
  2
TABLES
  0
TABLE
  2
VPORT
  5
8
100
AcDbSymbolTable
 70
1
  0
VPORT
  5
30
100
AcDbSymbolTableRecord
100
AcDbViewportTableRecord
  2
*Active
 70
0
 10
0.0
 20
0.0
 11
1.0
 21
1.0
 12
286.3055555555554861
 22
148.5
 13
0.0
 23
0.0
 14
10.0
 24
10.0
 15
10.0
 25
10.0
 16
0.0
 26
0.0
 36
1.0
 17
0.0
 27
0.0
 37
0.0
 40
297.0
 41
1.92798353909465
 42
50.0
 43
0.0
 44
0.0
 50
0.0
 51
0.0
 71
0
 72
100
 73
1
 74
3
 75
1
 76
1
 77
0
 78
0
281
0
 65
1
110
0.0
120
0.0
130
0.0
111
1.0
121
0.0
131
0.0
112
0.0
122
1.0
132
0.0
 79
0
146
0.0
  0
ENDTAB
  0
TABLE
  2
LTYPE
  5
5
100
AcDbSymbolTable
 70
21
  0
LTYPE
  5
14
100
AcDbSymbolTableRecord
100
AcDbLinetypeTableRecord
  2
ByBlock
 70
0
  3

 72
65
 73
0
 40
0.0
  0
LTYPE
  5
15
100
AcDbSymbolTableRecord
100
AcDbLinetypeTableRecord
  2
ByLayer
 70
0
  3

 72
65
 73
0
 40
0.0
  0
LTYPE
  5
16
100
AcDbSymbolTableRecord
100
AcDbLinetypeTableRecord
  2
CONTINUOUS
 70
0
  3
Solid line
 72
65
 73
0
 40
0.0
  0
LTYPE
  5
31
100
AcDbSymbolTableRecord
100
AcDbLinetypeTableRecord
  2
DOT
 70
0
  3
Dot . . . . . . . . . . . . . . . . . . . . . .
 72
65
 73
2
 40
6.3499999999999996
 49
0.0
 74
0
 49
-6.3499999999999996
 74
0
  0
LTYPE
  5
32
100
AcDbSymbolTableRecord
100
AcDbLinetypeTableRecord
  2
DOT2
 70
0
  3
Dot (.5x) .....................................
 72
65
 73
2
 40
3.1749999999999998
 49
0.0
 74
0
 49
-3.1749999999999998
 74
0
  0
LTYPE
  5
33
100
AcDbSymbolTableRecord
100
AcDbLinetypeTableRecord
  2
DOTX2
 70
0
  3
Dot (2x) .  .  .  .  .  .  .  .  .  .  .  .  .
 72
65
 73
2
 40
12.6999999999999993
 49
0.0
 74
0
 49
-12.6999999999999993
 74
0
  0
LTYPE
  5
34
100
AcDbSymbolTableRecord
100
AcDbLinetypeTableRecord
  2
DASHED
 70
0
  3
Dashed __ __ __ __ __ __ __ __ __ __ __ __ __ _
 72
65
 73
2
 40
19.0500000000000007
 49
12.6999999999999993
 74
0
 49
-6.3499999999999996
 74
0
  0
LTYPE
  5
35
100
AcDbSymbolTableRecord
100
AcDbLinetypeTableRecord
  2
DASHED2
 70
0
  3
Dashed (.5x) _ _ _ _ _ _ _ _ _ _ _ _ _ _ _ _ _
 72
65
 73
2
 40
9.5250000000000004
 49
6.3499999999999996
 74
0
 49
-3.1749999999999998
 74
0
  0
LTYPE
  5
36
100
AcDbSymbolTableRecord
100
AcDbLinetypeTableRecord
  2
DASHEDX2
 70
0
  3
Dashed (2x) ____  ____  ____  ____  ____  ___
 72
65
 73
2
 40
38.1000000000000014
 49
25.3999999999999986
 74
0
 49
-12.6999999999999993
 74
0
  0
LTYPE
  5
37
100
AcDbSymbolTableRecord
100
AcDbLinetypeTableRecord
  2
DASHDOT
 70
0
  3
Dash dot __ . __ . __ . __ . __ . __ . __ . __
 72
65
 73
4
 40
25.3999999999999986
 49
12.6999999999999993
 74
0
 49
-6.3499999999999996
 74
0
 49
0.0
 74
0
 49
-6.3499999999999996
 74
0
  0
LTYPE
  5
38
100
AcDbSymbolTableRecord
100
AcDbLinetypeTableRecord
  2
DASHDOT2
 70
0
  3
Dash dot (.5x) _._._._._._._._._._._._._._._.
 72
65
 73
4
 40
12.6999999999999993
 49
6.3499999999999996
 74
0
 49
-3.1749999999999998
 74
0
 49
0.0
 74
0
 49
-3.1749999999999998
 74
0
  0
LTYPE
  5
39
100
AcDbSymbolTableRecord
100
AcDbLinetypeTableRecord
  2
DASHDOTX2
 70
0
  3
Dash dot (2x) ____  .  ____  .  ____  .  ___
 72
65
 73
4
 40
50.7999999999999972
 49
25.3999999999999986
 74
0
 49
-12.6999999999999993
 74
0
 49
0.0
 74
0
 49
-12.6999999999999993
 74
0
  0
LTYPE
  5
3A
100
AcDbSymbolTableRecord
100
AcDbLinetypeTableRecord
  2
DIVIDE
 70
0
  3
Divide ____ . . ____ . . ____ . . ____ . . ____
 72
65
 73
6
 40
31.75
 49
12.6999999999999993
 74
0
 49
-6.3499999999999996
 74
0
 49
0.0
 74
0
 49
-6.3499999999999996
 74
0
 49
0.0
 74
0
 49
-6.3499999999999996
 74
0
  0
LTYPE
  5
3B
100
AcDbSymbolTableRecord
100
AcDbLinetypeTableRecord
  2
DIVIDE2
 70
0
  3
Divide (.5x) __..__..__..__..__..__..__..__.._
 72
65
 73
6
 40
15.875
 49
6.3499999999999996
 74
0
 49
-3.1749999999999998
 74
0
 49
0.0
 74
0
 49
-3.1749999999999998
 74
0
 49
0.0
 74
0
 49
-3.1749999999999998
 74
0
  0
LTYPE
  5
3C
100
AcDbSymbolTableRecord
100
AcDbLinetypeTableRecord
  2
DIVIDEX2
 70
0
  3
Divide (2x) ________  .  .  ________  .  .  _
 72
65
 73
6
 40
63.5
 49
25.3999999999999986
 74
0
 49
-12.6999999999999993
 74
0
 49
0.0
 74
0
 49
-12.6999999999999993
 74
0
 49
0.0
 74
0
 49
-12.6999999999999993
 74
0
  0
LTYPE
  5
3D
100
AcDbSymbolTableRecord
100
AcDbLinetypeTableRecord
  2
CENTER
 70
0
  3
Center ____ _ ____ _ ____ _ ____ _ ____ _ ____
 72
65
 73
4
 40
50.7999999999999972
 49
31.75
 74
0
 49
-6.3499999999999996
 74
0
 49
6.3499999999999996
 74
0
 49
-6.3499999999999996
 74
0
  0
LTYPE
  5
3E
100
AcDbSymbolTableRecord
100
AcDbLinetypeTableRecord
  2
CENTER2
 70
0
  3
Center (.5x) ___ _ ___ _ ___ _ ___ _ ___ _ ___
 72
65
 73
4
 40
28.5749999999999993
 49
19.0500000000000007
 74
0
 49
-3.1749999999999998
 74
0
 49
3.1749999999999998
 74
0
 49
-3.1749999999999998
 74
0
  0
LTYPE
  5
3F
100
AcDbSymbolTableRecord
100
AcDbLinetypeTableRecord
  2
CENTERX2
 70
0
  3
Center (2x) ________  __  ________  __  _____
 72
65
 73
4
 40
101.5999999999999943
 49
63.5
 74
0
 49
-12.6999999999999993
 74
0
 49
12.6999999999999993
 74
0
 49
-12.6999999999999993
 74
0
  0
LTYPE
  5
40
100
AcDbSymbolTableRecord
100
AcDbLinetypeTableRecord
  2
BORDER
 70
0
  3
Border __ __ . __ __ . __ __ . __ __ . __ __ .
 72
65
 73
6
 40
44.4500000000000028
 49
12.6999999999999993
 74
0
 49
-6.3499999999999996
 74
0
 49
12.6999999999999993
 74
0
 49
-6.3499999999999996
 74
0
 49
0.0
 74
0
 49
-6.3499999999999996
 74
0
  0
LTYPE
  5
41
100
AcDbSymbolTableRecord
100
AcDbLinetypeTableRecord
  2
BORDER2
 70
0
  3
Border (.5x) __.__.__.__.__.__.__.__.__.__.__.
 72
65
 73
6
 40
22.2250000000000014
 49
6.3499999999999996
 74
0
 49
-3.1749999999999998
 74
0
 49
6.3499999999999996
 74
0
 49
-3.1749999999999998
 74
0
 49
0.0
 74
0
 49
-3.1749999999999998
 74
0
  0
LTYPE
  5
42
100
AcDbSymbolTableRecord
100
AcDbLinetypeTableRecord
  2
BORDERX2
 70
0
  3
Border (2x) ____  ____  .  ____  ____  .  ___
 72
65
 73
6
 40
88.9000000000000057
 49
25.3999999999999986
 74
0
 49
-12.6999999999999993
 74
0
 49
25.3999999999999986
 74
0
 49
-12.6999999999999993
 74
0
 49
0.0
 74
0
 49
-12.6999999999999993
 74
0
  0
ENDTAB
  0
TABLE
  2
LAYER
  5
2
100
AcDbSymbolTable
 70
2
  0
LAYER
  5
10
100
AcDbSymbolTableRecord
100
AcDbLayerTableRecord
  2
0
 70
0
 62
7
  6
CONTINUOUS
370
0
390
F
  0
LAYER
  5
43
100
AcDbSymbolTableRecord
100
AcDbLayerTableRecord
  2
Layer0
 70
0
 62
7
  6
ByLayer
390
F
  0
ENDTAB
  0
TABLE
  2
STYLE
  5
3
100
AcDbSymbolTable
 70
1
  0
STYLE
  5
11
100
AcDbSymbolTableRecord
100
AcDbTextStyleTableRecord
  2
Standard
 70
0
 40
0.0
 41
0.75
 50
0.0
 71
0
 42
2.5
  3
txt
  4

  0
ENDTAB
  0
TABLE
  2
VIEW
  5
6
100
AcDbSymbolTable
 70
0
  0
ENDTAB
  0
TABLE
  2
UCS
  5
7
100
AcDbSymbolTable
 70
0
  0
ENDTAB
  0
TABLE
  2
APPID
  5
9
100
AcDbSymbolTable
 70
1
  0
APPID
  5
12
100
AcDbSymbolTableRecord
100
AcDbRegAppTableRecord
  2
ACAD
 70
0
  0
ENDTAB
  0
TABLE
  2
DIMSTYLE
  5
A
100
AcDbSymbolTable
 70
1
100
AcDbDimStyleTable
 71
0
  0
DIMSTYLE
105
27
100
AcDbSymbolTableRecord
100
AcDbDimStyleTableRecord
  2
Standard
 41
0.1
 42
0.025
 43
3.75
 44
0.05
 70
0
 73
0
 74
0
 77
1
 78
8
140
0.1
141
2.5
143
0.03937007874016
147
0.025
171
3
172
1
271
2
272
2
274
3
278
44
283
0
284
8
340
11
  0
ENDTAB
  0
TABLE
  2
BLOCK_RECORD
  5
1
100
AcDbSymbolTable
 70
1
  0
BLOCK_RECORD
  5
1F
100
AcDbSymbolTableRecord
100
AcDbBlockTableRecord
  2
*Model_Space
340
22
  0
BLOCK_RECORD
  5
1B
100
AcDbSymbolTableRecord
100
AcDbBlockTableRecord
  2
*Paper_Space
340
1E
  0
BLOCK_RECORD
  5
23
100
AcDbSymbolTableRecord
100
AcDbBlockTableRecord
  2
*Paper_Space0
340
26
  0
ENDTAB
  0
ENDSEC
  0
SECTION
  2
BLOCKS
  0
BLOCK
  5
20
100
AcDbEntity
  8
0
100
AcDbBlockBegin
  2
*Model_Space
 70
0
 10
0.0
 20
0.0
 30
0.0
  3
*Model_Space
  1

  0
ENDBLK
  5
21
100
AcDbEntity
  8
0
100
AcDbBlockEnd
  0
BLOCK
  5
1C
100
AcDbEntity
 67
1
  8
0
100
AcDbBlockBegin
  2
*Paper_Space
 70
0
 10
0.0
 20
0.0
 30
0.0
  3
*Paper_Space
  1

  0
ENDBLK
  5
1D
100
AcDbEntity
 67
1
  8
0
100
AcDbBlockEnd
  0
BLOCK
  5
24
100
AcDbEntity
  8
0
100
AcDbBlockBegin
  2
*Paper_Space0
 70
0
 10
0.0
 20
0.0
 30
0.0
  3
*Paper_Space0
  1

  0
ENDBLK
  5
25
100
AcDbEntity
  8
0
100
AcDbBlockEnd
  0
ENDSEC
  0
SECTION
  2
ENTITIES
  0
LWPOLYLINE
  5
44
  8
Layer0
 62
256
370
-1
  6
ByLayer
100
AcDbEntity
100
AcDbPolyline
 90
361
 70
0
 10
-0.254206005690375
 20
-1.6049935534671
 10
-0.226156289060106
 20
-1.60918561170505
 10
-0.198037683033365
 20
-1.61288749641715
 10
-0.169858752809937
 20
-1.6160980799734399
 10
-0.141628081964945
 20
-1.6188163843990899
 10
-0.113354269834204
 20
-1.6210415816722099
 10
-0.0850459288947837
 20
-1.6227729939761799
 10
-0.0567116821415644
 20
-1.62401009390603
 10
-0.0283601604605856
 20
-1.62475250462914
 10
-0.0000000000000002
 20
-1.625
 10
0.0283601604605859
 20
-1.62475250462914
 10
0.056711682141564
 20
-1.62401009390603
 10
0.0850459288947833
 20
-1.6227729939761799
 10
0.113354269834204
 20
-1.6210415816722099
 10
0.141628081964944
 20
-1.6188163843990899
 10
0.169858752809937
 20
-1.6160980799734399
 10
0.198037683033364
 20
-1.61288749641715
 10
0.226156289060106
 20
-1.60918561170505
 10
0.254206005690375
 20
-1.6049935534671
 10
0.282178288708762
 20
-1.6003125986448401
 10
0.310064617486885
 20
-1.59514417310245
 10
0.337856497578859
 20
-1.58948985119243
 10
0.365545463308781
 20
-1.5833513552760099
 10
0.39312308034946
 20
-1.57673055519849
 10
0.420580948291596
 20
-1.56962946771974
 10
0.447910703202623
 20
-1.56205025589977
 10
0.475104020174447
 20
-1.5539952284399301
 10
0.5021526158592891
 20
-1.54546683897962
 10
0.52904825099288
 20
-1.5364676853488901
 10
0.555782732904212
 20
-1.5270005087770999
 10
0.582347918011113
 20
-1.5170681930579499
 10
0.608735714300857
 20
-1.5066737636710299
 10
0.63493808379507
 20
-1.49582038686022
 10
0.660947044998175
 20
-1.4845113686692299
 10
0.686754675328636
 20
-1.47275015393456
 10
0.7123531135322509
 20
-1.46054032523615
 10
0.737734562076763
 20
-1.4478856018060999
 10
0.762891289527073
 20
-1.43478983839576
 10
0.787815632900298
 20
-1.4212570241015201
 10
0.8125
 20
-1.40729128114971
 10
0.836936871728838
 20
-1.39289686364093
 10
0.861118804378958
 20
-1.3780781562541899
 10
0.885038431899419
 20
-1.3628396729113099
 10
0.908688468139963
 20
-1.3471860554019399
 10
0.9320617090704501
 20
-1.33112207196961
 10
0.955151034975269
 20
-1.3146526158592899
 10
0.977949412622079
 20
-1.2977827038268499
 10
1.00044989740419
 20
-1.28051747461092
 10
1.0226456354559901
 20
-1.26286218736758
 10
1.0445298657406299
 20
-1.2448222200683401
 10
1.06609592210957
 20
-1.2264030678619999
 10
1.0873372353331401
 20
-1.2076103414007699
 10
1.10824733510156
 20
-1.1884497651311501
 10
1.1288198519958701
 20
-1.1689271755503099
 10
1.1490485194281399
 20
-1.1490485194281399
 10
1.1689271755503099
 20
-1.1288198519958701
 10
1.1884497651311501
 20
-1.10824733510156
 10
1.2076103414007699
 20
-1.0873372353331401
 10
1.2264030678619999
 20
-1.06609592210957
 10
1.2448222200683401
 20
-1.0445298657406299
 10
1.26286218736758
 20
-1.0226456354559901
 10
1.28051747461092
 20
-1.00044989740419
 10
1.2977827038268499
 20
-0.977949412622078
 10
1.3146526158592899
 20
-0.955151034975269
 10
1.33112207196961
 20
-0.9320617090704501
 10
1.3471860554019399
 20
-0.908688468139963
 10
1.3628396729113099
 20
-0.885038431899419
 10
1.3780781562541899
 20
-0.861118804378958
 10
1.39289686364093
 20
-0.836936871728839
 10
1.40729128114971
 20
-0.812500000000001
 10
1.4212570241015201
 20
-0.787815632900297
 10
1.43478983839576
 20
-0.762891289527073
 10
1.4478856018060999
 20
-0.737734562076764
 10
1.46054032523615
 20
-0.7123531135322509
 10
1.47275015393456
 20
-0.686754675328636
 10
1.4845113686692299
 20
-0.660947044998175
 10
1.49582038686022
 20
-0.63493808379507
 10
1.5066737636710299
 20
-0.608735714300857
 10
1.5170681930579499
 20
-0.582347918011114
 10
1.5270005087770999
 20
-0.555782732904211
 10
1.5364676853488901
 20
-0.52904825099288
 10
1.54546683897962
 20
-0.5021526158592901
 10
1.5539952284399301
 20
-0.475104020174448
 10
1.56205025589977
 20
-0.447910703202623
 10
1.56962946771974
 20
-0.420580948291596
 10
1.57673055519849
 20
-0.39312308034946
 10
1.5833513552760099
 20
-0.365545463308781
 10
1.58948985119243
 20
-0.33785649757886
 10
1.59514417310245
 20
-0.310064617486885
 10
1.6003125986448401
 20
-0.282178288708762
 10
1.6049935534671
 20
-0.254206005690375
 10
1.60918561170505
 20
-0.226156289060107
 10
1.61288749641715
 20
-0.198037683033364
 10
1.6160980799734399
 20
-0.169858752809937
 10
1.6188163843990899
 20
-0.141628081964945
 10
1.6210415816722099
 20
-0.113354269834204
 10
1.6227729939761799
 20
-0.0850459288947845
 10
1.62401009390603
 20
-0.0567116821415637
 10
1.62475250462914
 20
-0.0283601604605857
 10
1.625
 20
-0.0000000000000003
 10
1.62475250462914
 20
0.0283601604605851
 10
1.62401009390603
 20
0.0567116821415646
 10
1.6227729939761799
 20
0.0850459288947839
 10
1.6210415816722099
 20
0.113354269834203
 10
1.6188163843990899
 20
0.141628081964944
 10
1.6160980799734399
 20
0.169858752809936
 10
1.61288749641715
 20
0.198037683033365
 10
1.60918561170505
 20
0.226156289060106
 10
1.6049935534671
 20
0.254206005690375
 10
1.6003125986448401
 20
0.282178288708761
 10
1.59514417310245
 20
0.310064617486886
 10
1.58948985119243
 20
0.337856497578859
 10
1.5833513552760099
 20
0.365545463308781
 10
1.57673055519849
 20
0.39312308034946
 10
1.56962946771974
 20
0.420580948291595
 10
1.56205025589977
 20
0.447910703202624
 10
1.5539952284399301
 20
0.475104020174447
 10
1.54546683897962
 20
0.5021526158592891
 10
1.5364676853488901
 20
0.529048250992879
 10
1.5270005087770999
 20
0.555782732904212
 10
1.5170681930579499
 20
0.582347918011113
 10
1.5066737636710299
 20
0.608735714300857
 10
1.49582038686022
 20
0.634938083795069
 10
1.4845113686692299
 20
0.660947044998175
 10
1.47275015393456
 20
0.686754675328637
 10
1.46054032523615
 20
0.7123531135322509
 10
1.4478856018060999
 20
0.737734562076763
 10
1.43478983839576
 20
0.762891289527072
 10
1.4212570241015201
 20
0.787815632900298
 10
1.40729128114971
 20
0.8125
 10
1.39289686364093
 20
0.836936871728838
 10
1.3780781562541899
 20
0.861118804378958
 10
1.3628396729113099
 20
0.885038431899418
 10
1.3471860554019399
 20
0.908688468139964
 10
1.33112207196961
 20
0.9320617090704501
 10
1.3146526158592899
 20
0.955151034975269
 10
1.2977827038268499
 20
0.977949412622078
 10
1.28051747461092
 20
1.0004498974042
 10
1.26286218736758
 20
1.0226456354559901
 10
1.2448222200683401
 20
1.0445298657406299
 10
1.2264030678619999
 20
1.06609592210957
 10
1.2076103414007699
 20
1.0873372353331401
 10
1.1884497651311501
 20
1.10824733510156
 10
1.1689271755503099
 20
1.1288198519958701
 10
1.1490485194281399
 20
1.1490485194281399
 10
1.1288198519958701
 20
1.1689271755503099
 10
1.10824733510156
 20
1.1884497651311501
 10
1.0873372353331401
 20
1.2076103414007699
 10
1.06609592210957
 20
1.2264030678619999
 10
1.0445298657406299
 20
1.2448222200683401
 10
1.0226456354559901
 20
1.26286218736758
 10
1.00044989740419
 20
1.28051747461092
 10
0.977949412622078
 20
1.2977827038268499
 10
0.955151034975269
 20
1.3146526158592899
 10
0.932061709070451
 20
1.33112207196961
 10
0.908688468139963
 20
1.3471860554019399
 10
0.885038431899419
 20
1.3628396729113099
 10
0.861118804378958
 20
1.3780781562541899
 10
0.836936871728839
 20
1.39289686364093
 10
0.812500000000001
 20
1.40729128114971
 10
0.787815632900297
 20
1.4212570241015201
 10
0.762891289527073
 20
1.43478983839576
 10
0.737734562076764
 20
1.4478856018060999
 10
0.7123531135322509
 20
1.46054032523615
 10
0.686754675328636
 20
1.47275015393456
 10
0.660947044998175
 20
1.4845113686692299
 10
0.63493808379507
 20
1.49582038686022
 10
0.608735714300858
 20
1.5066737636710299
 10
0.582347918011114
 20
1.5170681930579499
 10
0.555782732904211
 20
1.5270005087770999
 10
0.52904825099288
 20
1.5364676853488901
 10
0.5021526158592901
 20
1.54546683897962
 10
0.475104020174448
 20
1.5539952284399301
 10
0.447910703202623
 20
1.56205025589977
 10
0.420580948291596
 20
1.56962946771974
 10
0.39312308034946
 20
1.57673055519849
 10
0.365545463308781
 20
1.5833513552760099
 10
0.33785649757886
 20
1.58948985119243
 10
0.310064617486885
 20
1.59514417310245
 10
0.282178288708762
 20
1.6003125986448401
 10
0.254206005690376
 20
1.6049935534671
 10
0.226156289060107
 20
1.60918561170505
 10
0.198037683033364
 20
1.61288749641715
 10
0.169858752809937
 20
1.6160980799734399
 10
0.141628081964945
 20
1.6188163843990899
 10
0.113354269834204
 20
1.6210415816722099
 10
0.0850459288947846
 20
1.6227729939761799
 10
0.0567116821415638
 20
1.62401009390603
 10
0.0283601604605858
 20
1.62475250462914
 10
0.0
 20
1.625
 10
-0.0283601604605857
 20
1.62475250462914
 10
-0.0567116821415641
 20
1.62401009390603
 10
-0.0850459288947837
 20
1.6227729939761799
 10
-0.113354269834204
 20
1.6210415816722099
 10
-0.141628081964945
 20
1.6188163843990899
 10
-0.169858752809937
 20
1.6160980799734399
 10
-0.198037683033365
 20
1.61288749641715
 10
-0.226156289060106
 20
1.60918561170505
 10
-0.254206005690375
 20
1.6049935534671
 10
-0.282178288708762
 20
1.6003125986448401
 10
-0.310064617486885
 20
1.59514417310245
 10
-0.337856497578859
 20
1.58948985119243
 10
-0.365545463308781
 20
1.5833513552760099
 10
-0.39312308034946
 20
1.57673055519849
 10
-0.420580948291596
 20
1.56962946771974
 10
-0.447910703202624
 20
1.56205025589977
 10
-0.475104020174447
 20
1.5539952284399301
 10
-0.5021526158592891
 20
1.54546683897962
 10
-0.52904825099288
 20
1.5364676853488901
 10
-0.555782732904212
 20
1.5270005087770999
 10
-0.582347918011113
 20
1.5170681930579499
 10
-0.608735714300857
 20
1.5066737636710299
 10
-0.63493808379507
 20
1.49582038686022
 10
-0.660947044998175
 20
1.4845113686692299
 10
-0.686754675328637
 20
1.47275015393456
 10
-0.7123531135322509
 20
1.46054032523615
 10
-0.737734562076763
 20
1.4478856018060999
 10
-0.762891289527073
 20
1.43478983839576
 10
-0.787815632900298
 20
1.4212570241015201
 10
-0.8125
 20
1.40729128114971
 10
-0.836936871728838
 20
1.39289686364093
 10
-0.861118804378958
 20
1.3780781562541899
 10
-0.885038431899419
 20
1.3628396729113099
 10
-0.908688468139964
 20
1.3471860554019399
 10
-0.9320617090704501
 20
1.33112207196961
 10
-0.955151034975269
 20
1.3146526158592899
 10
-0.977949412622078
 20
1.2977827038268499
 10
-1.00044989740419
 20
1.28051747461092
 10
-1.0226456354559901
 20
1.26286218736758
 10
-1.0445298657406299
 20
1.2448222200683401
 10
-1.06609592210957
 20
1.2264030678619999
 10
-1.0873372353331401
 20
1.2076103414007699
 10
-1.10824733510156
 20
1.1884497651311501
 10
-1.1288198519958701
 20
1.1689271755503099
 10
-1.1490485194281399
 20
1.1490485194281399
 10
-1.1689271755503099
 20
1.1288198519958701
 10
-1.1884497651311501
 20
1.10824733510156
 10
-1.2076103414007699
 20
1.0873372353331401
 10
-1.2264030678619999
 20
1.06609592210957
 10
-1.2448222200683401
 20
1.0445298657406299
 10
-1.26286218736758
 20
1.0226456354559901
 10
-1.28051747461092
 20
1.00044989740419
 10
-1.2977827038268499
 20
0.977949412622079
 10
-1.3146526158592899
 20
0.955151034975269
 10
-1.33112207196961
 20
0.9320617090704501
 10
-1.3471860554019399
 20
0.908688468139964
 10
-1.3628396729113099
 20
0.885038431899419
 10
-1.3780781562541899
 20
0.861118804378958
 10
-1.39289686364093
 20
0.836936871728838
 10
-1.40729128114971
 20
0.8125
 10
-1.4212570241015201
 20
0.787815632900298
 10
-1.43478983839576
 20
0.762891289527073
 10
-1.4478856018060999
 20
0.737734562076764
 10
-1.46054032523615
 20
0.7123531135322509
 10
-1.47275015393456
 20
0.686754675328637
 10
-1.4845113686692299
 20
0.660947044998175
 10
-1.49582038686022
 20
0.63493808379507
 10
-1.5066737636710299
 20
0.608735714300857
 10
-1.5170681930579499
 20
0.582347918011113
 10
-1.5270005087770999
 20
0.555782732904212
 10
-1.5364676853488901
 20
0.52904825099288
 10
-1.54546683897962
 20
0.5021526158592901
 10
-1.5539952284399301
 20
0.475104020174447
 10
-1.56205025589977
 20
0.447910703202624
 10
-1.56962946771974
 20
0.420580948291596
 10
-1.57673055519849
 20
0.39312308034946
 10
-1.5833513552760099
 20
0.365545463308781
 10
-1.58948985119243
 20
0.337856497578859
 10
-1.59514417310245
 20
0.310064617486885
 10
-1.6003125986448401
 20
0.282178288708762
 10
-1.6049935534671
 20
0.254206005690375
 10
-1.60918561170505
 20
0.226156289060106
 10
-1.61288749641715
 20
0.198037683033365
 10
-1.6160980799734399
 20
0.169858752809937
 10
-1.6188163843990899
 20
0.141628081964944
 10
-1.6210415816722099
 20
0.113354269834204
 10
-1.6227729939761799
 20
0.0850459288947839
 10
-1.62401009390603
 20
0.0567116821415643
 10
-1.62475250462914
 20
0.0283601604605858
 10
-1.625
 20
0.0000000000000001
 10
-1.62475250462914
 20
-0.0283601604605856
 10
-1.62401009390603
 20
-0.0567116821415641
 10
-1.6227729939761799
 20
-0.0850459288947837
 10
-1.6210415816722099
 20
-0.113354269834204
 10
-1.6188163843990899
 20
-0.141628081964945
 10
-1.6160980799734399
 20
-0.169858752809937
 10
-1.61288749641715
 20
-0.198037683033364
 10
-1.60918561170505
 20
-0.226156289060106
 10
-1.6049935534671
 20
-0.254206005690375
 10
-1.6003125986448401
 20
-0.282178288708762
 10
-1.59514417310245
 20
-0.310064617486885
 10
-1.58948985119243
 20
-0.337856497578859
 10
-1.5833513552760099
 20
-0.365545463308781
 10
-1.57673055519849
 20
-0.39312308034946
 10
-1.56962946771974
 20
-0.420580948291596
 10
-1.56205025589977
 20
-0.447910703202623
 10
-1.5539952284399301
 20
-0.475104020174447
 10
-1.54546683897962
 20
-0.5021526158592891
 10
-1.5364676853488901
 20
-0.52904825099288
 10
-1.5270005087770999
 20
-0.555782732904212
 10
-1.5170681930579499
 20
-0.582347918011113
 10
-1.5066737636710299
 20
-0.608735714300857
 10
-1.49582038686022
 20
-0.63493808379507
 10
-1.4845113686692299
 20
-0.660947044998175
 10
-1.47275015393456
 20
-0.686754675328636
 10
-1.46054032523615
 20
-0.7123531135322509
 10
-1.4478856018060999
 20
-0.737734562076763
 10
-1.43478983839576
 20
-0.762891289527073
 10
-1.4212570241015201
 20
-0.787815632900298
 10
-1.40729128114971
 20
-0.8125
 10
-1.39289686364093
 20
-0.836936871728838
 10
-1.3780781562541899
 20
-0.861118804378958
 10
-1.3628396729113099
 20
-0.885038431899419
 10
-1.3471860554019399
 20
-0.908688468139963
 10
-1.33112207196961
 20
-0.9320617090704501
 10
-1.3146526158592899
 20
-0.955151034975269
 10
-1.2977827038268499
 20
-0.977949412622079
 10
-1.28051747461092
 20
-1.00044989740419
 10
-1.26286218736758
 20
-1.0226456354559901
 10
-1.2448222200683401
 20
-1.0445298657406299
 10
-1.2264030678619999
 20
-1.06609592210957
 10
-1.2076103414007699
 20
-1.0873372353331401
 10
-1.1884497651311501
 20
-1.10824733510156
 10
-1.1689271755503099
 20
-1.1288198519958701
 10
-1.1490485194281399
 20
-1.1490485194281399
 10
-1.1288198519958701
 20
-1.1689271755503099
 10
-1.10824733510156
 20
-1.1884497651311501
 10
-1.0873372353331401
 20
-1.2076103414007699
 10
-1.06609592210957
 20
-1.2264030678619999
 10
-1.0445298657406299
 20
-1.2448222200683401
 10
-1.0226456354559901
 20
-1.26286218736758
 10
-1.00044989740419
 20
-1.28051747461092
 10
-0.977949412622078
 20
-1.2977827038268499
 10
-0.955151034975269
 20
-1.3146526158592899
 10
-0.9320617090704501
 20
-1.33112207196961
 10
-0.908688468139964
 20
-1.3471860554019399
 10
-0.885038431899419
 20
-1.3628396729113099
 10
-0.861118804378958
 20
-1.3780781562541899
 10
-0.836936871728838
 20
-1.39289686364093
 10
-0.8125
 20
-1.40729128114971
 10
-0.787815632900298
 20
-1.4212570241015201
 10
-0.762891289527072
 20
-1.43478983839576
 10
-0.737734562076764
 20
-1.4478856018060999
 10
-0.7123531135322509
 20
-1.46054032523615
 10
-0.686754675328637
 20
-1.47275015393456
 10
-0.660947044998176
 20
-1.4845113686692299
 10
-0.63493808379507
 20
-1.49582038686022
 10
-0.608735714300857
 20
-1.5066737636710299
 10
-0.582347918011113
 20
-1.5170681930579499
 10
-0.555782732904212
 20
-1.5270005087770999
 10
-0.529048250992879
 20
-1.5364676853488901
 10
-0.5021526158592901
 20
-1.54546683897962
 10
-0.475104020174447
 20
-1.5539952284399301
 10
-0.447910703202624
 20
-1.56205025589977
 10
-0.420580948291597
 20
-1.56962946771974
 10
-0.39312308034946
 20
-1.57673055519849
 10
-0.365545463308781
 20
-1.5833513552760099
 10
-0.337856497578859
 20
-1.58948985119243
 10
-0.310064617486886
 20
-1.59514417310245
 10
-0.282178288708762
 20
-1.6003125986448401
 10
-0.254206005690375
 20
-1.6049935534671
  0
CIRCLE
  5
45
100
AcDbEntity
100
AcDbCircle
  8
Layer0
 62
256
370
-1
  6
ByLayer
 10
4.0
 20
-0.0000000000000001
 30
0.0
 40
0.53
  0
CIRCLE
  5
46
100
AcDbEntity
100
AcDbCircle
  8
Layer0
 62
256
370
-1
  6
ByLayer
 10
0.0
 20
0.0
 30
0.0
 40
5.0
  0
CIRCLE
  5
47
100
AcDbEntity
100
AcDbCircle
  8
Layer0
 62
256
370
-1
  6
ByLayer
 10
0.0
 20
4.0
 30
0.0
 40
0.53
  0
CIRCLE
  5
48
100
AcDbEntity
100
AcDbCircle
  8
Layer0
 62
256
370
-1
  6
ByLayer
 10
-4.0
 20
0.0
 30
0.0
 40
0.53
  0
CIRCLE
  5
49
100
AcDbEntity
100
AcDbCircle
  8
Layer0
 62
256
370
-1
  6
ByLayer
 10
0.0
 20
-4.0
 30
0.0
 40
0.53
  0
CIRCLE
  5
4A
100
AcDbEntity
100
AcDbCircle
  8
Layer0
 62
256
370
-1
  6
ByLayer
 10
2.8260000000000001
 20
2.8260000000000001
 30
0.0
 40
0.53
  0
CIRCLE
  5
4B
100
AcDbEntity
100
AcDbCircle
  8
Layer0
 62
256
370
-3
  6
CONTINUOUS
 10
2.8300000000000001
 20
-2.8300000000000001
 30
0.0
 40
0.53
  0
CIRCLE
  5
4C
100
AcDbEntity
100
AcDbCircle
  8
Layer0
 62
256
370
-3
  6
CONTINUOUS
 10
-2.8300000000000001
 20
-2.8300000000000001
 30
0.0
 40
0.53
  0
CIRCLE
  5
4D
100
AcDbEntity
100
AcDbCircle
  8
Layer0
 62
256
370
-3
  6
CONTINUOUS
 10
-2.8300000000000001
 20
2.8300000000000001
 30
0.0
 40
0.53
  0
ENDSEC
  0
SECTION
  2
OBJECTS
  0
DICTIONARY
  5
C
100
AcDbDictionary
280
0
281
1
  3
ACAD_GROUP
350
D
  3
ACAD_LAYOUT
350
1A
  3
ACAD_MLINESTYLE
350
17
  3
ACAD_PLOTSETTINGS
350
19
  3
ACAD_PLOTSTYLENAME
350
E
  3
AcDbVariableDictionary
350
4E
  0
DICTIONARY
  5
D
100
AcDbDictionary
280
0
281
1
  0
ACDBDICTIONARYWDFLT
  5
E
100
AcDbDictionary
281
1
  3
Normal
350
F
100
AcDbDictionaryWithDefault
340
F
  0
ACDBPLACEHOLDER
  5
F
  0
DICTIONARY
  5
17
100
AcDbDictionary
280
0
281
1
  3
Standard
350
18
  0
MLINESTYLE
  5
18
100
AcDbMlineStyle
  2
STANDARD
 70
0
  3

 62
256
 51
90.0
 52
90.0
 71
2
 49
0.5
 62
256
  6
BYLAYER
 49
-0.5
 62
256
  6
BYLAYER
  0
DICTIONARY
  5
19
100
AcDbDictionary
280
0
281
1
  0
DICTIONARY
  5
1A
100
AcDbDictionary
281
1
  3
Layout1
350
1E
  3
Layout2
350
26
  3
Model
350
22
  0
LAYOUT
  5
1E
100
AcDbPlotSettings
  1

  2
C:\Program Files\AutoCAD 2002\plotters\DWF ePlot (optimized for plotting).pc3
  4

  6

 40
0.0
 41
0.0
 42
0.0
 43
0.0
 44
0.0
 45
0.0
 46
0.0
 47
0.0
 48
0.0
 49
0.0
140
0.0
141
0.0
142
1.0
143
1.0
 70
688
 72
0
 73
0
 74
5
  7

 75
16
147
1.0
148
0.0
149
0.0
100
AcDbLayout
  1
Layout1
 70
1
 71
1
 10
0.0
 20
0.0
 11
420.0
 21
297.0
 12
0.0
 22
0.0
 32
0.0
 14
100000000000000000000.0
 24
100000000000000000000.0
 34
100000000000000000000.0
 15
-100000000000000000000.0
 25
-100000000000000000000.0
 35
-100000000000000000000.0
146
0.0
 13
0.0
 23
0.0
 33
0.0
 16
1.0
 26
0.0
 36
0.0
 17
0.0
 27
1.0
 37
0.0
 76
0
330
1B
  0
LAYOUT
  5
22
100
AcDbPlotSettings
  1

  2
C:\Program Files\AutoCAD 2002\plotters\DWF ePlot (optimized for plotting).pc3
  4

  6

 40
0.0
 41
0.0
 42
0.0
 43
0.0
 44
0.0
 45
0.0
 46
0.0
 47
0.0
 48
0.0
 49
0.0
140
0.0
141
0.0
142
1.0
143
1.0
 70
1712
 72
0
 73
0
 74
0
  7

 75
0
147
1.0
148
0.0
149
0.0
100
AcDbLayout
  1
Model
 70
1
 71
0
 10
0.0
 20
0.0
 11
12.0
 21
9.0
 12
0.0
 22
0.0
 32
0.0
 14
0.0
 24
0.0
 34
0.0
 15
0.0
 25
0.0
 35
0.0
146
0.0
 13
0.0
 23
0.0
 33
0.0
 16
1.0
 26
0.0
 36
0.0
 17
0.0
 27
1.0
 37
0.0
 76
0
330
1F
  0
LAYOUT
  5
26
100
AcDbPlotSettings
  1

  2
C:\Program Files\AutoCAD 2002\plotters\DWF ePlot (optimized for plotting).pc3
  4

  6

 40
0.0
 41
0.0
 42
0.0
 43
0.0
 44
0.0
 45
0.0
 46
0.0
 47
0.0
 48
0.0
 49
0.0
140
0.0
141
0.0
142
1.0
143
1.0
 70
688
 72
0
 73
0
 74
5
  7

 75
16
147
1.0
148
0.0
149
0.0
100
AcDbLayout
  1
Layout2
 70
1
 71
2
 10
0.0
 20
0.0
 11
12.0
 21
9.0
 12
0.0
 22
0.0
 32
0.0
 14
0.0
 24
0.0
 34
0.0
 15
0.0
 25
0.0
 35
0.0
146
0.0
 13
0.0
 23
0.0
 33
0.0
 16
1.0
 26
0.0
 36
0.0
 17
0.0
 27
1.0
 37
0.0
 76
0
330
23
  0
DICTIONARY
  5
4E
100
AcDbDictionary
281
1
  3
DIMASSOC
350
50
  3
HIDETEXT
350
4F
  0
DICTIONARYVAR
  5
4F
100
DictionaryVariables
280
0
  1
2
  0
DICTIONARYVAR
  5
50
100
DictionaryVariables
280
0
  1
1
  0
ENDSEC
  0
EOF
