ISO-10303-21;
HEADER;
FILE_DESCRIPTION (( 'STEP AP203' ),
    '1' );
FILE_NAME ('OutsidePlate.STEP',
    '2012-05-22T00:52:01',
    ( '' ),
    ( '' ),
    'SwSTEP 2.0',
    'SolidWorks 2010',
    '' );
FILE_SCHEMA (( 'CONFIG_CONTROL_DESIGN' ));
ENDSEC;

DATA;
#1 = EDGE_LOOP ( 'NONE', ( #119, #102 ) ) ;
#2 = ORIENTED_EDGE ( 'NONE', *, *, #86, .T. ) ;
#3 = EDGE_LOOP ( 'NONE', ( #107, #115, #99, #101 ) ) ;
#4 = EDGE_LOOP ( 'NONE', ( #114, #95 ) ) ;
#5 = ORIENTED_EDGE ( 'NONE', *, *, #64, .F. ) ;
#6 = ORIENTED_EDGE ( 'NONE', *, *, #57, .F. ) ;
#7 = EDGE_LOOP ( 'NONE', ( #91, #98, #100, #93 ) ) ;
#8 = EDGE_LOOP ( 'NONE', ( #116, #118, #113, #110 ) ) ;
#9 = ORIENTED_EDGE ( 'NONE', *, *, #65, .T. ) ;
#10 = ORIENTED_EDGE ( 'NONE', *, *, #62, .T. ) ;
#11 = EDGE_LOOP ( 'NONE', ( #104, #5, #13, #10 ) ) ;
#12 = ORIENTED_EDGE ( 'NONE', *, *, #86, .F. ) ;
#13 = ORIENTED_EDGE ( 'NONE', *, *, #84, .T. ) ;
#14 = ORIENTED_EDGE ( 'NONE', *, *, #55, .F. ) ;
#15 = ADVANCED_BREP_SHAPE_REPRESENTATION ( 'OutsidePlate', ( #17, #68 ), #169 ) ;
#16 = UNCERTAINTY_MEASURE_WITH_UNIT (LENGTH_MEASURE( 1.000000000000000100E-005 ), #227, 'distance_accuracy_value', 'NONE');
#17 = MANIFOLD_SOLID_BREP ( 'Cut-Extrude1', #109 ) ;
#18 = CYLINDRICAL_SURFACE ( 'NONE', #74, 15.90000000000000700 ) ;
#19 = FACE_OUTER_BOUND ( 'NONE', #192, .T. ) ;
#20 = FACE_BOUND ( 'NONE', #1, .T. ) ;
#21 = SHAPE_DEFINITION_REPRESENTATION ( #87, #15 ) ;
#22 = VECTOR ( 'NONE', #291, 1000.000000000000000 ) ;
#23 = LINE ( 'NONE', #297, #30 ) ;
#24 = VECTOR ( 'NONE', #294, 1000.000000000000000 ) ;
#25 = LINE ( 'NONE', #301, #26 ) ;
#26 = VECTOR ( 'NONE', #303, 1000.000000000000000 ) ;
#27 = LINE ( 'NONE', #268, #171 ) ;
#28 = CIRCLE ( 'NONE', #41, 15.90000000000000700 ) ;
#29 = VECTOR ( 'NONE', #306, 1000.000000000000000 ) ;
#30 = VECTOR ( 'NONE', #257, 1000.000000000000000 ) ;
#31 = LINE ( 'NONE', #309, #29 ) ;
#32 = VECTOR ( 'NONE', #302, 1000.000000000000000 ) ;
#33 = FACE_BOUND ( 'NONE', #4, .T. ) ;
#34 = LINE ( 'NONE', #256, #32 ) ;
#35 = FACE_OUTER_BOUND ( 'NONE', #11, .T. ) ;
#36 = FACE_OUTER_BOUND ( 'NONE', #7, .T. ) ;
#37 = FACE_OUTER_BOUND ( 'NONE', #186, .T. ) ;
#38 = EDGE_CURVE ( 'NONE', #250, #286, #182, .T. ) ;
#39 = APPROVAL ( #212, 'UNSPECIFIED' ) ;
#40 = CC_DESIGN_APPROVAL ( #39, ( #79 ) ) ;
#41 = AXIS2_PLACEMENT_3D ( 'NONE', #298, #299, #311 ) ;
#42 = EDGE_CURVE ( 'NONE', #288, #296, #184, .T. ) ;
#43 = EDGE_CURVE ( 'NONE', #288, #252, #111, .T. ) ;
#44 = CC_DESIGN_PERSON_AND_ORGANIZATION_ASSIGNMENT ( #131, #199, ( #59 ) ) ;
#45 = CC_DESIGN_PERSON_AND_ORGANIZATION_ASSIGNMENT ( #155, #196, ( #53 ) ) ;
#46 = CC_DESIGN_PERSON_AND_ORGANIZATION_ASSIGNMENT ( #123, #204, ( #143 ) ) ;
#47 = AXIS2_PLACEMENT_3D ( 'NONE', #233, #264, #255 ) ;
#48 = APPROVAL ( #208, 'UNSPECIFIED' ) ;
#49 = CC_DESIGN_APPROVAL ( #48, ( #59 ) ) ;
#50 = CC_DESIGN_PERSON_AND_ORGANIZATION_ASSIGNMENT ( #154, #195, ( #79 ) ) ;
#51 = CC_DESIGN_DATE_AND_TIME_ASSIGNMENT ( #135, #201, ( #59 ) ) ;
#52 = AXIS2_PLACEMENT_3D ( 'NONE', #272, #258, #219 ) ;
#53 = SECURITY_CLASSIFICATION ( '', '', #222 ) ;
#54 = EDGE_CURVE ( 'NONE', #252, #280, #189, .T. ) ;
#55 = EDGE_CURVE ( 'NONE', #305, #296, #190, .T. ) ;
#56 = CC_DESIGN_PERSON_AND_ORGANIZATION_ASSIGNMENT ( #153, #194, ( #79 ) ) ;
#57 = EDGE_CURVE ( 'NONE', #296, #280, #188, .T. ) ;
#58 = EDGE_CURVE ( 'NONE', #279, #308, #31, .T. ) ;
#59 = PRODUCT_DEFINITION ( 'UNKNOWN', '', #79, #88 ) ;
#60 = EDGE_CURVE ( 'NONE', #267, #288, #185, .T. ) ;
#61 = EDGE_CURVE ( 'NONE', #280, #308, #25, .T. ) ;
#62 = EDGE_CURVE ( 'NONE', #304, #286, #28, .T. ) ;
#63 = EDGE_CURVE ( 'NONE', #267, #305, #23, .T. ) ;
#64 = EDGE_CURVE ( 'NONE', #300, #250, #174, .T. ) ;
#65 = EDGE_CURVE ( 'NONE', #279, #267, #178, .T. ) ;
#66 = EDGE_CURVE ( 'NONE', #252, #279, #177, .T. ) ;
#67 = AXIS2_PLACEMENT_3D ( 'NONE', #269, #289, #292 ) ;
#68 = AXIS2_PLACEMENT_3D ( 'NONE', #262, #207, #231 ) ;
#69 = AXIS2_PLACEMENT_3D ( 'NONE', #266, #260, #273 ) ;
#70 = EDGE_CURVE ( 'NONE', #250, #300, #172, .T. ) ;
#71 = CC_DESIGN_DATE_AND_TIME_ASSIGNMENT ( #159, #197, ( #53 ) ) ;
#72 = AXIS2_PLACEMENT_3D ( 'NONE', #278, #202, #205 ) ;
#73 = AXIS2_PLACEMENT_3D ( 'NONE', #275, #218, #217 ) ;
#74 = AXIS2_PLACEMENT_3D ( 'NONE', #206, #209, #263 ) ;
#75 = AXIS2_PLACEMENT_3D ( 'NONE', #220, #271, #193 ) ;
#76 = AXIS2_PLACEMENT_3D ( 'NONE', #203, #225, #228 ) ;
#77 = AXIS2_PLACEMENT_3D ( 'NONE', #216, #237, #236 ) ;
#78 = AXIS2_PLACEMENT_3D ( 'NONE', #235, #234, #246 ) ;
#79 = PRODUCT_DEFINITION_FORMATION_WITH_SPECIFIED_SOURCE ( 'ANY', '', #143, .NOT_KNOWN. ) ;
#80 = APPROVAL ( #198, 'UNSPECIFIED' ) ;
#81 = EDGE_CURVE ( 'NONE', #286, #304, #170, .T. ) ;
#82 = CC_DESIGN_SECURITY_CLASSIFICATION ( #53, ( #79 ) ) ;
#83 = CC_DESIGN_APPROVAL ( #80, ( #53 ) ) ;
#84 = EDGE_CURVE ( 'NONE', #300, #304, #27, .T. ) ;
#85 = PRODUCT_RELATED_PRODUCT_CATEGORY ( 'detail', '', ( #143 ) ) ;
#86 = EDGE_CURVE ( 'NONE', #308, #305, #34, .T. ) ;
#87 = PRODUCT_DEFINITION_SHAPE ( 'NONE', 'NONE',  #59 ) ;
#88 = DESIGN_CONTEXT ( 'detailed design', #211, 'design' ) ;
#89 = ORIENTED_EDGE ( 'NONE', *, *, #66, .T. ) ;
#90 = ORIENTED_EDGE ( 'NONE', *, *, #60, .T. ) ;
#91 = ORIENTED_EDGE ( 'NONE', *, *, #61, .T. ) ;
#92 = ORIENTED_EDGE ( 'NONE', *, *, #70, .F. ) ;
#93 = ORIENTED_EDGE ( 'NONE', *, *, #54, .T. ) ;
#94 = ORIENTED_EDGE ( 'NONE', *, *, #65, .F. ) ;
#95 = ORIENTED_EDGE ( 'NONE', *, *, #81, .F. ) ;
#96 = ORIENTED_EDGE ( 'NONE', *, *, #43, .T. ) ;
#97 = ORIENTED_EDGE ( 'NONE', *, *, #58, .T. ) ;
#98 = ORIENTED_EDGE ( 'NONE', *, *, #58, .F. ) ;
#99 = ORIENTED_EDGE ( 'NONE', *, *, #43, .F. ) ;
#100 = ORIENTED_EDGE ( 'NONE', *, *, #66, .F. ) ;
#101 = ORIENTED_EDGE ( 'NONE', *, *, #42, .T. ) ;
#102 = ORIENTED_EDGE ( 'NONE', *, *, #70, .T. ) ;
#103 = ORIENTED_EDGE ( 'NONE', *, *, #61, .F. ) ;
#104 = ORIENTED_EDGE ( 'NONE', *, *, #38, .F. ) ;
#105 = FACE_OUTER_BOUND ( 'NONE', #8, .T. ) ;
#106 = CYLINDRICAL_SURFACE ( 'NONE', #78, 15.90000000000000700 ) ;
#107 = ORIENTED_EDGE ( 'NONE', *, *, #57, .T. ) ;
#108 = VECTOR ( 'NONE', #282, 1000.000000000000000 ) ;
#109 = CLOSED_SHELL ( 'NONE', ( #151, #150, #149, #146, #145, #144, #148, #147 ) ) ;
#110 = ORIENTED_EDGE ( 'NONE', *, *, #63, .T. ) ;
#111 = LINE ( 'NONE', #284, #108 ) ;
#112 = ORIENTED_EDGE ( 'NONE', *, *, #84, .F. ) ;
#113 = ORIENTED_EDGE ( 'NONE', *, *, #60, .F. ) ;
#114 = ORIENTED_EDGE ( 'NONE', *, *, #62, .F. ) ;
#115 = ORIENTED_EDGE ( 'NONE', *, *, #54, .F. ) ;
#116 = ORIENTED_EDGE ( 'NONE', *, *, #55, .T. ) ;
#117 = ORIENTED_EDGE ( 'NONE', *, *, #63, .F. ) ;
#118 = ORIENTED_EDGE ( 'NONE', *, *, #42, .F. ) ;
#119 = ORIENTED_EDGE ( 'NONE', *, *, #64, .T. ) ;
#120 = ORIENTED_EDGE ( 'NONE', *, *, #38, .T. ) ;
#121 = ORIENTED_EDGE ( 'NONE', *, *, #81, .T. ) ;
#122 = ORGANIZATION ( 'UNSPECIFIED', 'UNSPECIFIED', '' ) ;
#123 = PERSON_AND_ORGANIZATION ( #142, #122 ) ;
#124 = PERSON_AND_ORGANIZATION ( #142, #122 ) ;
#125 = APPROVAL_PERSON_ORGANIZATION ( #124, #48, #200 ) ;
#126 = COORDINATED_UNIVERSAL_TIME_OFFSET ( 6, 0, .BEHIND. ) ;
#127 = LOCAL_TIME ( 19, 52, 1.000000000000000000, #126 ) ;
#128 = CALENDAR_DATE ( 2012, 21, 5 ) ;
#129 = DATE_AND_TIME ( #128, #127 ) ;
#130 = APPROVAL_DATE_TIME ( #129, #48 ) ;
#131 = PERSON_AND_ORGANIZATION ( #142, #122 ) ;
#132 = COORDINATED_UNIVERSAL_TIME_OFFSET ( 6, 0, .BEHIND. ) ;
#133 = LOCAL_TIME ( 19, 52, 1.000000000000000000, #132 ) ;
#134 = CALENDAR_DATE ( 2012, 21, 5 ) ;
#135 = DATE_AND_TIME ( #134, #133 ) ;
#136 = PERSON_AND_ORGANIZATION ( #142, #122 ) ;
#137 = APPROVAL_PERSON_ORGANIZATION ( #136, #39, #210 ) ;
#138 = COORDINATED_UNIVERSAL_TIME_OFFSET ( 6, 0, .BEHIND. ) ;
#139 = LOCAL_TIME ( 19, 52, 1.000000000000000000, #138 ) ;
#140 = CALENDAR_DATE ( 2012, 21, 5 ) ;
#141 = DATE_AND_TIME ( #140, #139 ) ;
#142 = PERSON ( 'UNSPECIFIED', 'UNSPECIFIED', 'UNSPECIFIED', ('UNSPECIFIED'), ('UNSPECIFIED'), ('UNSPECIFIED') ) ;
#143 = PRODUCT ( 'OutsidePlate', 'OutsidePlate', '', ( #240 ) ) ;
#144 = ADVANCED_FACE ( 'NONE', ( #33, #173 ), #251, .F. ) ;
#145 = ADVANCED_FACE ( 'NONE', ( #37 ), #270, .F. ) ;
#146 = ADVANCED_FACE ( 'NONE', ( #36 ), #265, .F. ) ;
#147 = ADVANCED_FACE ( 'NONE', ( #35 ), #18, .F. ) ;
#148 = ADVANCED_FACE ( 'NONE', ( #20, #168 ), #230, .T. ) ;
#149 = ADVANCED_FACE ( 'NONE', ( #167 ), #215, .F. ) ;
#150 = ADVANCED_FACE ( 'NONE', ( #105 ), #221, .F. ) ;
#151 = ADVANCED_FACE ( 'NONE', ( #19 ), #106, .F. ) ;
#152 = APPROVAL_DATE_TIME ( #141, #39 ) ;
#153 = PERSON_AND_ORGANIZATION ( #142, #122 ) ;
#154 = PERSON_AND_ORGANIZATION ( #142, #122 ) ;
#155 = PERSON_AND_ORGANIZATION ( #142, #122 ) ;
#156 = COORDINATED_UNIVERSAL_TIME_OFFSET ( 6, 0, .BEHIND. ) ;
#157 = LOCAL_TIME ( 19, 52, 1.000000000000000000, #156 ) ;
#158 = CALENDAR_DATE ( 2012, 21, 5 ) ;
#159 = DATE_AND_TIME ( #158, #157 ) ;
#160 = PERSON_AND_ORGANIZATION ( #142, #122 ) ;
#161 = APPROVAL_PERSON_ORGANIZATION ( #160, #80, #247 ) ;
#162 = COORDINATED_UNIVERSAL_TIME_OFFSET ( 6, 0, .BEHIND. ) ;
#163 = LOCAL_TIME ( 19, 52, 1.000000000000000000, #162 ) ;
#164 = CALENDAR_DATE ( 2012, 21, 5 ) ;
#165 = DATE_AND_TIME ( #164, #163 ) ;
#166 = APPROVAL_DATE_TIME ( #165, #80 ) ;
#167 = FACE_OUTER_BOUND ( 'NONE', #3, .T. ) ;
#168 = FACE_OUTER_BOUND ( 'NONE', #181, .T. ) ;
#169 =( GEOMETRIC_REPRESENTATION_CONTEXT ( 3 ) GLOBAL_UNCERTAINTY_ASSIGNED_CONTEXT ( ( #16 ) ) GLOBAL_UNIT_ASSIGNED_CONTEXT ( ( #227, #239, #238 ) ) REPRESENTATION_CONTEXT ( 'NONE', 'WORKASPACE' ) );
#170 = CIRCLE ( 'NONE', #67, 15.90000000000000700 ) ;
#171 = VECTOR ( 'NONE', #281, 1000.000000000000000 ) ;
#172 = CIRCLE ( 'NONE', #52, 15.90000000000000700 ) ;
#173 = FACE_OUTER_BOUND ( 'NONE', #180, .T. ) ;
#174 = CIRCLE ( 'NONE', #47, 15.90000000000000700 ) ;
#175 = VECTOR ( 'NONE', #276, 1000.000000000000000 ) ;
#176 = VECTOR ( 'NONE', #277, 1000.000000000000000 ) ;
#177 = LINE ( 'NONE', #274, #176 ) ;
#178 = LINE ( 'NONE', #259, #175 ) ;
#179 = VECTOR ( 'NONE', #254, 1000.000000000000000 ) ;
#180 = EDGE_LOOP ( 'NONE', ( #90, #96, #89, #9 ) ) ;
#181 = EDGE_LOOP ( 'NONE', ( #14, #12, #103, #6 ) ) ;
#182 = LINE ( 'NONE', #285, #183 ) ;
#183 = VECTOR ( 'NONE', #290, 1000.000000000000000 ) ;
#184 = LINE ( 'NONE', #283, #191 ) ;
#185 = LINE ( 'NONE', #310, #24 ) ;
#186 = EDGE_LOOP ( 'NONE', ( #2, #117, #94, #97 ) ) ;
#187 = VECTOR ( 'NONE', #293, 1000.000000000000000 ) ;
#188 = LINE ( 'NONE', #307, #22 ) ;
#189 = LINE ( 'NONE', #295, #179 ) ;
#190 = LINE ( 'NONE', #287, #187 ) ;
#191 = VECTOR ( 'NONE', #213, 1000.000000000000000 ) ;
#192 = EDGE_LOOP ( 'NONE', ( #92, #120, #121, #112 ) ) ;
#193 = DIRECTION ( 'NONE',  ( 0.0000000000000000000, -0.0000000000000000000, -1.000000000000000000 ) ) ;
#194 = PERSON_AND_ORGANIZATION_ROLE ( 'creator' ) ;
#195 = PERSON_AND_ORGANIZATION_ROLE ( 'design_supplier' ) ;
#196 = PERSON_AND_ORGANIZATION_ROLE ( 'classification_officer' ) ;
#197 = DATE_TIME_ROLE ( 'classification_date' ) ;
#198 = APPROVAL_STATUS ( 'not_yet_approved' ) ;
#199 = PERSON_AND_ORGANIZATION_ROLE ( 'creator' ) ;
#200 = APPROVAL_ROLE ( '' ) ;
#201 = DATE_TIME_ROLE ( 'creation_date' ) ;
#202 = DIRECTION ( 'NONE',  ( 0.0000000000000000000, 0.0000000000000000000, 1.000000000000000000 ) ) ;
#203 = CARTESIAN_POINT ( 'NONE',  ( 0.0000000000000000000, 12.69999999999999900, 0.0000000000000000000 ) ) ;
#204 = PERSON_AND_ORGANIZATION_ROLE ( 'design_owner' ) ;
#205 = DIRECTION ( 'NONE',  ( 1.000000000000000000, 0.0000000000000000000, -0.0000000000000000000 ) ) ;
#206 = CARTESIAN_POINT ( 'NONE',  ( 37.50000000000000000, 0.0000000000000000000, -37.50000000000000000 ) ) ;
#207 = DIRECTION ( 'NONE',  ( 0.0000000000000000000, 0.0000000000000000000, 1.000000000000000000 ) ) ;
#208 = APPROVAL_STATUS ( 'not_yet_approved' ) ;
#209 = DIRECTION ( 'NONE',  ( -0.0000000000000000000, 1.000000000000000000, -0.0000000000000000000 ) ) ;
#210 = APPROVAL_ROLE ( '' ) ;
#211 = APPLICATION_CONTEXT ( 'configuration controlled 3d designs of mechanical parts and assemblies' ) ;
#212 = APPROVAL_STATUS ( 'not_yet_approved' ) ;
#213 = DIRECTION ( 'NONE',  ( -0.0000000000000000000, -1.000000000000000000, -0.0000000000000000000 ) ) ;
#214 = CARTESIAN_POINT ( 'NONE',  ( 0.0000000000000000000, 0.0000000000000000000, 0.0000000000000000000 ) ) ;
#215 = PLANE ( 'NONE',  #76 ) ;
#216 = CARTESIAN_POINT ( 'NONE',  ( 0.0000000000000000000, 12.69999999999999900, 0.0000000000000000000 ) ) ;
#217 = DIRECTION ( 'NONE',  ( 0.0000000000000000000, 0.0000000000000000000, 1.000000000000000000 ) ) ;
#218 = DIRECTION ( 'NONE',  ( -1.000000000000000000, 0.0000000000000000000, 0.0000000000000000000 ) ) ;
#219 = DIRECTION ( 'NONE',  ( 0.0000000000000000000, 0.0000000000000000000, 1.000000000000000000 ) ) ;
#220 = CARTESIAN_POINT ( 'NONE',  ( 0.0000000000000000000, 0.0000000000000000000, -75.00000000000000000 ) ) ;
#221 = PLANE ( 'NONE',  #77 ) ;
#222 = SECURITY_CLASSIFICATION_LEVEL ( 'unclassified' ) ;
#223 = CARTESIAN_POINT ( 'NONE',  ( 0.0000000000000000000, 12.69999999999999900, 0.0000000000000000000 ) ) ;
#224 = APPLICATION_PROTOCOL_DEFINITION ( 'international standard', 'config_control_design', 1994, #211 ) ;
#225 = DIRECTION ( 'NONE',  ( 0.0000000000000000000, 0.0000000000000000000, -1.000000000000000000 ) ) ;
#226 = CARTESIAN_POINT ( 'NONE',  ( 37.50000000000000000, 0.0000000000000000000, -53.40000000000000600 ) ) ;
#227 =( LENGTH_UNIT ( ) NAMED_UNIT ( * ) SI_UNIT ( .MILLI., .METRE. ) );
#228 = DIRECTION ( 'NONE',  ( -1.000000000000000000, 0.0000000000000000000, -0.0000000000000000000 ) ) ;
#229 = CARTESIAN_POINT ( 'NONE',  ( 37.50000000000000000, 12.69999999999999900, -21.59999999999999100 ) ) ;
#230 = PLANE ( 'NONE',  #75 ) ;
#231 = DIRECTION ( 'NONE',  ( 1.000000000000000000, 0.0000000000000000000, 0.0000000000000000000 ) ) ;
#232 = APPLICATION_CONTEXT ( 'configuration controlled 3d designs of mechanical parts and assemblies' ) ;
#233 = CARTESIAN_POINT ( 'NONE',  ( 37.50000000000000000, 0.0000000000000000000, -37.50000000000000000 ) ) ;
#234 = DIRECTION ( 'NONE',  ( -0.0000000000000000000, 1.000000000000000000, -0.0000000000000000000 ) ) ;
#235 = CARTESIAN_POINT ( 'NONE',  ( 37.50000000000000000, 0.0000000000000000000, -37.50000000000000000 ) ) ;
#236 = DIRECTION ( 'NONE',  ( 0.0000000000000000000, 0.0000000000000000000, -1.000000000000000000 ) ) ;
#237 = DIRECTION ( 'NONE',  ( 1.000000000000000000, -0.0000000000000000000, 0.0000000000000000000 ) ) ;
#238 =( NAMED_UNIT ( * ) SI_UNIT ( $, .STERADIAN. ) SOLID_ANGLE_UNIT ( ) );
#239 =( NAMED_UNIT ( * ) PLANE_ANGLE_UNIT ( ) SI_UNIT ( $, .RADIAN. ) );
#240 = MECHANICAL_CONTEXT ( 'NONE', #232, 'mechanical' ) ;
#241 = APPLICATION_PROTOCOL_DEFINITION ( 'international standard', 'config_control_design', 1994, #232 ) ;
#242 = CARTESIAN_POINT ( 'NONE',  ( 75.00000000000000000, 12.69999999999999900, 0.0000000000000000000 ) ) ;
#243 = CARTESIAN_POINT ( 'NONE',  ( 0.0000000000000000000, 12.69999999999999900, -75.00000000000000000 ) ) ;
#244 = CARTESIAN_POINT ( 'NONE',  ( 37.50000000000000000, 12.69999999999999900, -53.40000000000000600 ) ) ;
#245 = CARTESIAN_POINT ( 'NONE',  ( 0.0000000000000000000, 0.0000000000000000000, -75.00000000000000000 ) ) ;
#246 = DIRECTION ( 'NONE',  ( 0.0000000000000000000, 0.0000000000000000000, 1.000000000000000000 ) ) ;
#247 = APPROVAL_ROLE ( '' ) ;
#248 = CARTESIAN_POINT ( 'NONE',  ( 75.00000000000000000, 0.0000000000000000000, -75.00000000000000000 ) ) ;
#249 = CARTESIAN_POINT ( 'NONE',  ( 75.00000000000000000, 0.0000000000000000000, 0.0000000000000000000 ) ) ;
#250 = VERTEX_POINT ( 'NONE', #226 ) ;
#251 = PLANE ( 'NONE',  #69 ) ;
#252 = VERTEX_POINT ( 'NONE', #242 ) ;
#253 = CARTESIAN_POINT ( 'NONE',  ( 75.00000000000000000, 12.69999999999999900, -75.00000000000000000 ) ) ;
#254 = DIRECTION ( 'NONE',  ( -0.0000000000000000000, -1.000000000000000000, -0.0000000000000000000 ) ) ;
#255 = DIRECTION ( 'NONE',  ( 0.0000000000000000000, 0.0000000000000000000, 1.000000000000000000 ) ) ;
#256 = CARTESIAN_POINT ( 'NONE',  ( 0.0000000000000000000, 0.0000000000000000000, -75.00000000000000000 ) ) ;
#257 = DIRECTION ( 'NONE',  ( -0.0000000000000000000, -1.000000000000000000, -0.0000000000000000000 ) ) ;
#258 = DIRECTION ( 'NONE',  ( 0.0000000000000000000, 1.000000000000000000, -0.0000000000000000000 ) ) ;
#259 = CARTESIAN_POINT ( 'NONE',  ( 0.0000000000000000000, 12.69999999999999900, -75.00000000000000000 ) ) ;
#260 = DIRECTION ( 'NONE',  ( 0.0000000000000000000, -1.000000000000000000, 0.0000000000000000000 ) ) ;
#261 = CARTESIAN_POINT ( 'NONE',  ( 37.50000000000000000, 0.0000000000000000000, -21.59999999999999100 ) ) ;
#262 = CARTESIAN_POINT ( 'NONE',  ( 0.0000000000000000000, 0.0000000000000000000, 0.0000000000000000000 ) ) ;
#263 = DIRECTION ( 'NONE',  ( 0.0000000000000000000, 0.0000000000000000000, 1.000000000000000000 ) ) ;
#264 = DIRECTION ( 'NONE',  ( 0.0000000000000000000, 1.000000000000000000, -0.0000000000000000000 ) ) ;
#265 = PLANE ( 'NONE',  #73 ) ;
#266 = CARTESIAN_POINT ( 'NONE',  ( 0.0000000000000000000, 12.69999999999999900, -75.00000000000000000 ) ) ;
#267 = VERTEX_POINT ( 'NONE', #243 ) ;
#268 = CARTESIAN_POINT ( 'NONE',  ( 37.50000000000000000, 0.0000000000000000000, -21.59999999999999100 ) ) ;
#269 = CARTESIAN_POINT ( 'NONE',  ( 37.50000000000000000, 12.69999999999999900, -37.50000000000000000 ) ) ;
#270 = PLANE ( 'NONE',  #72 ) ;
#271 = DIRECTION ( 'NONE',  ( 0.0000000000000000000, -1.000000000000000000, 0.0000000000000000000 ) ) ;
#272 = CARTESIAN_POINT ( 'NONE',  ( 37.50000000000000000, 0.0000000000000000000, -37.50000000000000000 ) ) ;
#273 = DIRECTION ( 'NONE',  ( 0.0000000000000000000, -0.0000000000000000000, -1.000000000000000000 ) ) ;
#274 = CARTESIAN_POINT ( 'NONE',  ( 75.00000000000000000, 12.69999999999999900, 0.0000000000000000000 ) ) ;
#275 = CARTESIAN_POINT ( 'NONE',  ( 75.00000000000000000, 12.69999999999999900, 0.0000000000000000000 ) ) ;
#276 = DIRECTION ( 'NONE',  ( -1.000000000000000000, -0.0000000000000000000, -0.0000000000000000000 ) ) ;
#277 = DIRECTION ( 'NONE',  ( 0.0000000000000000000, 0.0000000000000000000, -1.000000000000000000 ) ) ;
#278 = CARTESIAN_POINT ( 'NONE',  ( 0.0000000000000000000, 12.69999999999999900, -75.00000000000000000 ) ) ;
#279 = VERTEX_POINT ( 'NONE', #253 ) ;
#280 = VERTEX_POINT ( 'NONE', #249 ) ;
#281 = DIRECTION ( 'NONE',  ( -0.0000000000000000000, 1.000000000000000000, -0.0000000000000000000 ) ) ;
#282 = DIRECTION ( 'NONE',  ( 1.000000000000000000, 0.0000000000000000000, 0.0000000000000000000 ) ) ;
#283 = CARTESIAN_POINT ( 'NONE',  ( 0.0000000000000000000, 12.69999999999999900, 0.0000000000000000000 ) ) ;
#284 = CARTESIAN_POINT ( 'NONE',  ( 0.0000000000000000000, 12.69999999999999900, 0.0000000000000000000 ) ) ;
#285 = CARTESIAN_POINT ( 'NONE',  ( 37.50000000000000000, 0.0000000000000000000, -53.40000000000000600 ) ) ;
#286 = VERTEX_POINT ( 'NONE', #244 ) ;
#287 = CARTESIAN_POINT ( 'NONE',  ( 0.0000000000000000000, 0.0000000000000000000, 0.0000000000000000000 ) ) ;
#288 = VERTEX_POINT ( 'NONE', #223 ) ;
#289 = DIRECTION ( 'NONE',  ( 0.0000000000000000000, 1.000000000000000000, -0.0000000000000000000 ) ) ;
#290 = DIRECTION ( 'NONE',  ( -0.0000000000000000000, 1.000000000000000000, -0.0000000000000000000 ) ) ;
#291 = DIRECTION ( 'NONE',  ( 1.000000000000000000, 0.0000000000000000000, 0.0000000000000000000 ) ) ;
#292 = DIRECTION ( 'NONE',  ( 0.0000000000000000000, 0.0000000000000000000, 1.000000000000000000 ) ) ;
#293 = DIRECTION ( 'NONE',  ( -0.0000000000000000000, -0.0000000000000000000, 1.000000000000000000 ) ) ;
#294 = DIRECTION ( 'NONE',  ( -0.0000000000000000000, -0.0000000000000000000, 1.000000000000000000 ) ) ;
#295 = CARTESIAN_POINT ( 'NONE',  ( 75.00000000000000000, 12.69999999999999900, 0.0000000000000000000 ) ) ;
#296 = VERTEX_POINT ( 'NONE', #214 ) ;
#297 = CARTESIAN_POINT ( 'NONE',  ( 0.0000000000000000000, 12.69999999999999900, -75.00000000000000000 ) ) ;
#298 = CARTESIAN_POINT ( 'NONE',  ( 37.50000000000000000, 12.69999999999999900, -37.50000000000000000 ) ) ;
#299 = DIRECTION ( 'NONE',  ( 0.0000000000000000000, 1.000000000000000000, -0.0000000000000000000 ) ) ;
#300 = VERTEX_POINT ( 'NONE', #261 ) ;
#301 = CARTESIAN_POINT ( 'NONE',  ( 75.00000000000000000, 0.0000000000000000000, 0.0000000000000000000 ) ) ;
#302 = DIRECTION ( 'NONE',  ( -1.000000000000000000, -0.0000000000000000000, -0.0000000000000000000 ) ) ;
#303 = DIRECTION ( 'NONE',  ( 0.0000000000000000000, 0.0000000000000000000, -1.000000000000000000 ) ) ;
#304 = VERTEX_POINT ( 'NONE', #229 ) ;
#305 = VERTEX_POINT ( 'NONE', #245 ) ;
#306 = DIRECTION ( 'NONE',  ( -0.0000000000000000000, -1.000000000000000000, -0.0000000000000000000 ) ) ;
#307 = CARTESIAN_POINT ( 'NONE',  ( 0.0000000000000000000, 0.0000000000000000000, 0.0000000000000000000 ) ) ;
#308 = VERTEX_POINT ( 'NONE', #248 ) ;
#309 = CARTESIAN_POINT ( 'NONE',  ( 75.00000000000000000, 12.69999999999999900, -75.00000000000000000 ) ) ;
#310 = CARTESIAN_POINT ( 'NONE',  ( 0.0000000000000000000, 12.69999999999999900, 0.0000000000000000000 ) ) ;
#311 = DIRECTION ( 'NONE',  ( 0.0000000000000000000, 0.0000000000000000000, 1.000000000000000000 ) ) ;
ENDSEC;
END-ISO-10303-21;
