ISO-10303-21;
HEADER;
FILE_DESCRIPTION (( 'STEP AP203' ),
    '1' );
FILE_NAME ('ThreadedRod.STEP',
    '2012-05-29T03:16:35',
    ( '' ),
    ( '' ),
    'SwSTEP 2.0',
    'SolidWorks 2010',
    '' );
FILE_SCHEMA (( 'CONFIG_CONTROL_DESIGN' ));
ENDSEC;

DATA;
#1 = MANIFOLD_SOLID_BREP ( 'Boss-Extrude1', #16 ) ;
#2 = UNCERTAINTY_MEASURE_WITH_UNIT (LENGTH_MEASURE( 1.000000000000000100E-005 ), #112, 'distance_accuracy_value', 'NONE');
#3 = ADVANCED_BREP_SHAPE_REPRESENTATION ( 'ThreadedRod', ( #1, #150 ), #64 ) ;
#4 = ADVANCED_FACE ( 'NONE', ( #11 ), #22, .T. ) ;
#5 = ADVANCED_FACE ( 'NONE', ( #76 ), #90, .T. ) ;
#6 = ADVANCED_FACE ( 'NONE', ( #13 ), #92, .F. ) ;
#7 = ADVANCED_FACE ( 'NONE', ( #14 ), #15, .T. ) ;
#8 = PERSON ( 'UNSPECIFIED', 'UNSPECIFIED', 'UNSPECIFIED', ('UNSPECIFIED'), ('UNSPECIFIED'), ('UNSPECIFIED') ) ;
#9 = PRODUCT ( 'ThreadedRod', 'ThreadedRod', '', ( #125 ) ) ;
#10 = ORIENTED_EDGE ( 'NONE', *, *, #154, .F. ) ;
#11 = FACE_OUTER_BOUND ( 'NONE', #73, .T. ) ;
#12 = LINE ( 'NONE', #97, #70 ) ;
#13 = FACE_OUTER_BOUND ( 'NONE', #72, .T. ) ;
#14 = FACE_OUTER_BOUND ( 'NONE', #74, .T. ) ;
#15 = CYLINDRICAL_SURFACE ( 'NONE', #156, 15.90000000000000000 ) ;
#16 = CLOSED_SHELL ( 'NONE', ( #7, #4, #5, #6 ) ) ;
#17 = ORIENTED_EDGE ( 'NONE', *, *, #146, .F. ) ;
#18 = ORIENTED_EDGE ( 'NONE', *, *, #151, .F. ) ;
#19 = ORIENTED_EDGE ( 'NONE', *, *, #153, .F. ) ;
#20 = ORIENTED_EDGE ( 'NONE', *, *, #153, .T. ) ;
#21 = ORIENTED_EDGE ( 'NONE', *, *, #141, .F. ) ;
#22 = CYLINDRICAL_SURFACE ( 'NONE', #142, 15.90000000000000000 ) ;
#23 = ORIENTED_EDGE ( 'NONE', *, *, #141, .T. ) ;
#24 = ORIENTED_EDGE ( 'NONE', *, *, #151, .T. ) ;
#25 = ORIENTED_EDGE ( 'NONE', *, *, #146, .T. ) ;
#26 = ORIENTED_EDGE ( 'NONE', *, *, #154, .T. ) ;
#27 = ORIENTED_EDGE ( 'NONE', *, *, #152, .F. ) ;
#28 = APPROVAL_DATE_TIME ( #29, #170 ) ;
#29 = DATE_AND_TIME ( #30, #31 ) ;
#30 = CALENDAR_DATE ( 2012, 28, 5 ) ;
#31 = LOCAL_TIME ( 22, 16, 35.00000000000000000, #32 ) ;
#32 = COORDINATED_UNIVERSAL_TIME_OFFSET ( 6, 0, .BEHIND. ) ;
#33 = APPROVAL_PERSON_ORGANIZATION ( #34, #170, #140 ) ;
#34 = PERSON_AND_ORGANIZATION ( #8, #62 ) ;
#35 = DATE_AND_TIME ( #36, #37 ) ;
#36 = CALENDAR_DATE ( 2012, 28, 5 ) ;
#37 = LOCAL_TIME ( 22, 16, 35.00000000000000000, #38 ) ;
#38 = COORDINATED_UNIVERSAL_TIME_OFFSET ( 6, 0, .BEHIND. ) ;
#39 = PERSON_AND_ORGANIZATION ( #8, #62 ) ;
#40 = PERSON_AND_ORGANIZATION ( #8, #62 ) ;
#41 = PERSON_AND_ORGANIZATION ( #8, #62 ) ;
#42 = APPROVAL_DATE_TIME ( #43, #148 ) ;
#43 = DATE_AND_TIME ( #44, #45 ) ;
#44 = CALENDAR_DATE ( 2012, 28, 5 ) ;
#45 = LOCAL_TIME ( 22, 16, 35.00000000000000000, #46 ) ;
#46 = COORDINATED_UNIVERSAL_TIME_OFFSET ( 6, 0, .BEHIND. ) ;
#47 = APPROVAL_PERSON_ORGANIZATION ( #48, #148, #124 ) ;
#48 = PERSON_AND_ORGANIZATION ( #8, #62 ) ;
#49 = DATE_AND_TIME ( #50, #51 ) ;
#50 = CALENDAR_DATE ( 2012, 28, 5 ) ;
#51 = LOCAL_TIME ( 22, 16, 35.00000000000000000, #52 ) ;
#52 = COORDINATED_UNIVERSAL_TIME_OFFSET ( 6, 0, .BEHIND. ) ;
#53 = PERSON_AND_ORGANIZATION ( #8, #62 ) ;
#54 = APPROVAL_DATE_TIME ( #55, #143 ) ;
#55 = DATE_AND_TIME ( #56, #57 ) ;
#56 = CALENDAR_DATE ( 2012, 28, 5 ) ;
#57 = LOCAL_TIME ( 22, 16, 35.00000000000000000, #58 ) ;
#58 = COORDINATED_UNIVERSAL_TIME_OFFSET ( 6, 0, .BEHIND. ) ;
#59 = APPROVAL_PERSON_ORGANIZATION ( #60, #143, #131 ) ;
#60 = PERSON_AND_ORGANIZATION ( #8, #62 ) ;
#61 = PERSON_AND_ORGANIZATION ( #8, #62 ) ;
#62 = ORGANIZATION ( 'UNSPECIFIED', 'UNSPECIFIED', '' ) ;
#63 = SHAPE_DEFINITION_REPRESENTATION ( #174, #3 ) ;
#64 =( GEOMETRIC_REPRESENTATION_CONTEXT ( 3 ) GLOBAL_UNCERTAINTY_ASSIGNED_CONTEXT ( ( #2 ) ) GLOBAL_UNIT_ASSIGNED_CONTEXT ( ( #112, #80, #118 ) ) REPRESENTATION_CONTEXT ( 'NONE', 'WORKASPACE' ) );
#65 = CIRCLE ( 'NONE', #149, 15.90000000000000000 ) ;
#66 = CIRCLE ( 'NONE', #164, 15.90000000000000000 ) ;
#67 = CIRCLE ( 'NONE', #158, 15.90000000000000000 ) ;
#68 = LINE ( 'NONE', #104, #71 ) ;
#69 = CIRCLE ( 'NONE', #157, 15.90000000000000000 ) ;
#70 = VECTOR ( 'NONE', #103, 1000.000000000000000 ) ;
#71 = VECTOR ( 'NONE', #116, 1000.000000000000000 ) ;
#72 = EDGE_LOOP ( 'NONE', ( #18, #10 ) ) ;
#73 = EDGE_LOOP ( 'NONE', ( #21, #19, #77, #24 ) ) ;
#74 = EDGE_LOOP ( 'NONE', ( #17, #23, #26, #27 ) ) ;
#75 = EDGE_LOOP ( 'NONE', ( #20, #25 ) ) ;
#76 = FACE_OUTER_BOUND ( 'NONE', #75, .T. ) ;
#77 = ORIENTED_EDGE ( 'NONE', *, *, #152, .T. ) ;
#78 = DATE_TIME_ROLE ( 'creation_date' ) ;
#79 = PERSON_AND_ORGANIZATION_ROLE ( 'creator' ) ;
#80 =( NAMED_UNIT ( * ) PLANE_ANGLE_UNIT ( ) SI_UNIT ( $, .RADIAN. ) );
#81 = DIRECTION ( 'NONE',  ( -0.0000000000000000000, -0.0000000000000000000, -1.000000000000000000 ) ) ;
#82 = DIRECTION ( 'NONE',  ( -0.0000000000000000000, -0.0000000000000000000, -1.000000000000000000 ) ) ;
#83 = DIRECTION ( 'NONE',  ( -1.000000000000000000, 0.0000000000000000000, 0.0000000000000000000 ) ) ;
#84 = VERTEX_POINT ( 'NONE', #98 ) ;
#85 = CARTESIAN_POINT ( 'NONE',  ( 0.0000000000000000000, 0.0000000000000000000, 350.0000000000000000 ) ) ;
#86 = CARTESIAN_POINT ( 'NONE',  ( 0.0000000000000000000, 0.0000000000000000000, 350.0000000000000000 ) ) ;
#87 = DIRECTION ( 'NONE',  ( -1.000000000000000000, 0.0000000000000000000, 0.0000000000000000000 ) ) ;
#88 = VERTEX_POINT ( 'NONE', #100 ) ;
#89 = DIRECTION ( 'NONE',  ( 0.0000000000000000000, 0.0000000000000000000, 1.000000000000000000 ) ) ;
#90 = PLANE ( 'NONE',  #155 ) ;
#91 = CARTESIAN_POINT ( 'NONE',  ( 0.0000000000000000000, 0.0000000000000000000, 0.0000000000000000000 ) ) ;
#92 = PLANE ( 'NONE',  #147 ) ;
#93 = DIRECTION ( 'NONE',  ( 0.0000000000000000000, 0.0000000000000000000, 1.000000000000000000 ) ) ;
#94 = DIRECTION ( 'NONE',  ( 1.000000000000000000, 0.0000000000000000000, -0.0000000000000000000 ) ) ;
#95 = CARTESIAN_POINT ( 'NONE',  ( 0.0000000000000000000, 0.0000000000000000000, 350.0000000000000000 ) ) ;
#96 = DIRECTION ( 'NONE',  ( 1.000000000000000000, 0.0000000000000000000, -0.0000000000000000000 ) ) ;
#97 = CARTESIAN_POINT ( 'NONE',  ( 15.90000000000000000, 1.947188410644291800E-015, 350.0000000000000000 ) ) ;
#98 = CARTESIAN_POINT ( 'NONE',  ( 15.90000000000000000, 1.947188410644291800E-015, 350.0000000000000000 ) ) ;
#99 = CARTESIAN_POINT ( 'NONE',  ( -15.90000000000000000, 0.0000000000000000000, 350.0000000000000000 ) ) ;
#100 = CARTESIAN_POINT ( 'NONE',  ( -15.90000000000000000, 0.0000000000000000000, 0.0000000000000000000 ) ) ;
#101 = CARTESIAN_POINT ( 'NONE',  ( 15.90000000000000000, 1.947188410644291800E-015, 0.0000000000000000000 ) ) ;
#102 = CARTESIAN_POINT ( 'NONE',  ( 0.0000000000000000000, 0.0000000000000000000, 0.0000000000000000000 ) ) ;
#103 = DIRECTION ( 'NONE',  ( -0.0000000000000000000, -0.0000000000000000000, -1.000000000000000000 ) ) ;
#104 = CARTESIAN_POINT ( 'NONE',  ( -15.90000000000000000, 0.0000000000000000000, 350.0000000000000000 ) ) ;
#105 = CARTESIAN_POINT ( 'NONE',  ( 0.0000000000000000000, 0.0000000000000000000, 350.0000000000000000 ) ) ;
#106 = DIRECTION ( 'NONE',  ( 0.0000000000000000000, 0.0000000000000000000, 1.000000000000000000 ) ) ;
#107 = DIRECTION ( 'NONE',  ( 1.000000000000000000, 0.0000000000000000000, 0.0000000000000000000 ) ) ;
#108 = CARTESIAN_POINT ( 'NONE',  ( 0.0000000000000000000, 0.0000000000000000000, 0.0000000000000000000 ) ) ;
#109 = DIRECTION ( 'NONE',  ( 0.0000000000000000000, 0.0000000000000000000, 1.000000000000000000 ) ) ;
#110 = CARTESIAN_POINT ( 'NONE',  ( 0.0000000000000000000, 0.0000000000000000000, 350.0000000000000000 ) ) ;
#111 = DIRECTION ( 'NONE',  ( 0.0000000000000000000, 0.0000000000000000000, 1.000000000000000000 ) ) ;
#112 =( LENGTH_UNIT ( ) NAMED_UNIT ( * ) SI_UNIT ( .MILLI., .METRE. ) );
#113 = DIRECTION ( 'NONE',  ( 1.000000000000000000, 0.0000000000000000000, 0.0000000000000000000 ) ) ;
#114 = DIRECTION ( 'NONE',  ( 0.0000000000000000000, 0.0000000000000000000, 1.000000000000000000 ) ) ;
#115 = DIRECTION ( 'NONE',  ( 1.000000000000000000, 0.0000000000000000000, 0.0000000000000000000 ) ) ;
#116 = DIRECTION ( 'NONE',  ( -0.0000000000000000000, -0.0000000000000000000, -1.000000000000000000 ) ) ;
#117 = APPROVAL_STATUS ( 'not_yet_approved' ) ;
#118 =( NAMED_UNIT ( * ) SI_UNIT ( $, .STERADIAN. ) SOLID_ANGLE_UNIT ( ) );
#119 = CARTESIAN_POINT ( 'NONE',  ( 0.0000000000000000000, 0.0000000000000000000, 0.0000000000000000000 ) ) ;
#120 = VERTEX_POINT ( 'NONE', #99 ) ;
#121 = DIRECTION ( 'NONE',  ( 1.000000000000000000, 0.0000000000000000000, 0.0000000000000000000 ) ) ;
#122 = APPLICATION_CONTEXT ( 'configuration controlled 3d designs of mechanical parts and assemblies' ) ;
#123 = APPLICATION_PROTOCOL_DEFINITION ( 'international standard', 'config_control_design', 1994, #122 ) ;
#124 = APPROVAL_ROLE ( '' ) ;
#125 = MECHANICAL_CONTEXT ( 'NONE', #122, 'mechanical' ) ;
#126 = APPLICATION_CONTEXT ( 'configuration controlled 3d designs of mechanical parts and assemblies' ) ;
#127 = DIRECTION ( 'NONE',  ( 1.000000000000000000, 0.0000000000000000000, 0.0000000000000000000 ) ) ;
#128 = APPROVAL_STATUS ( 'not_yet_approved' ) ;
#129 = APPLICATION_PROTOCOL_DEFINITION ( 'international standard', 'config_control_design', 1994, #126 ) ;
#130 = DIRECTION ( 'NONE',  ( 0.0000000000000000000, 0.0000000000000000000, 1.000000000000000000 ) ) ;
#131 = APPROVAL_ROLE ( '' ) ;
#132 = VERTEX_POINT ( 'NONE', #101 ) ;
#133 = PERSON_AND_ORGANIZATION_ROLE ( 'design_owner' ) ;
#134 = PERSON_AND_ORGANIZATION_ROLE ( 'design_supplier' ) ;
#135 = PERSON_AND_ORGANIZATION_ROLE ( 'creator' ) ;
#136 = SECURITY_CLASSIFICATION_LEVEL ( 'unclassified' ) ;
#137 = PERSON_AND_ORGANIZATION_ROLE ( 'classification_officer' ) ;
#138 = DATE_TIME_ROLE ( 'classification_date' ) ;
#139 = APPROVAL_STATUS ( 'not_yet_approved' ) ;
#140 = APPROVAL_ROLE ( '' ) ;
#141 = EDGE_CURVE ( 'NONE', #84, #132, #12, .T. ) ;
#142 = AXIS2_PLACEMENT_3D ( 'NONE', #86, #81, #83 ) ;
#143 = APPROVAL ( #128, 'UNSPECIFIED' ) ;
#144 = CC_DESIGN_APPROVAL ( #148, ( #145 ) ) ;
#145 = PRODUCT_DEFINITION_FORMATION_WITH_SPECIFIED_SOURCE ( 'ANY', '', #9, .NOT_KNOWN. ) ;
#146 = EDGE_CURVE ( 'NONE', #84, #120, #69, .T. ) ;
#147 = AXIS2_PLACEMENT_3D ( 'NONE', #91, #89, #96 ) ;
#148 = APPROVAL ( #117, 'UNSPECIFIED' ) ;
#149 = AXIS2_PLACEMENT_3D ( 'NONE', #102, #111, #115 ) ;
#150 = AXIS2_PLACEMENT_3D ( 'NONE', #119, #130, #127 ) ;
#151 = EDGE_CURVE ( 'NONE', #88, #132, #67, .T. ) ;
#152 = EDGE_CURVE ( 'NONE', #120, #88, #68, .T. ) ;
#153 = EDGE_CURVE ( 'NONE', #120, #84, #66, .T. ) ;
#154 = EDGE_CURVE ( 'NONE', #132, #88, #65, .T. ) ;
#155 = AXIS2_PLACEMENT_3D ( 'NONE', #85, #93, #94 ) ;
#156 = AXIS2_PLACEMENT_3D ( 'NONE', #95, #82, #87 ) ;
#157 = AXIS2_PLACEMENT_3D ( 'NONE', #105, #106, #107 ) ;
#158 = AXIS2_PLACEMENT_3D ( 'NONE', #108, #109, #121 ) ;
#159 = CC_DESIGN_PERSON_AND_ORGANIZATION_ASSIGNMENT ( #53, #79, ( #163 ) ) ;
#160 = CC_DESIGN_APPROVAL ( #143, ( #163 ) ) ;
#161 = CC_DESIGN_DATE_AND_TIME_ASSIGNMENT ( #49, #78, ( #163 ) ) ;
#162 = CC_DESIGN_PERSON_AND_ORGANIZATION_ASSIGNMENT ( #61, #133, ( #9 ) ) ;
#163 = PRODUCT_DEFINITION ( 'UNKNOWN', '', #145, #175 ) ;
#164 = AXIS2_PLACEMENT_3D ( 'NONE', #110, #114, #113 ) ;
#165 = CC_DESIGN_PERSON_AND_ORGANIZATION_ASSIGNMENT ( #41, #135, ( #145 ) ) ;
#166 = CC_DESIGN_PERSON_AND_ORGANIZATION_ASSIGNMENT ( #40, #134, ( #145 ) ) ;
#167 = SECURITY_CLASSIFICATION ( '', '', #136 ) ;
#168 = CC_DESIGN_PERSON_AND_ORGANIZATION_ASSIGNMENT ( #39, #137, ( #167 ) ) ;
#169 = CC_DESIGN_DATE_AND_TIME_ASSIGNMENT ( #35, #138, ( #167 ) ) ;
#170 = APPROVAL ( #139, 'UNSPECIFIED' ) ;
#171 = CC_DESIGN_APPROVAL ( #170, ( #167 ) ) ;
#172 = CC_DESIGN_SECURITY_CLASSIFICATION ( #167, ( #145 ) ) ;
#173 = PRODUCT_RELATED_PRODUCT_CATEGORY ( 'detail', '', ( #9 ) ) ;
#174 = PRODUCT_DEFINITION_SHAPE ( 'NONE', 'NONE',  #163 ) ;
#175 = DESIGN_CONTEXT ( 'detailed design', #126, 'design' ) ;
ENDSEC;
END-ISO-10303-21;
