ISO-10303-21;
HEADER;
FILE_DESCRIPTION (( 'STEP AP203' ),
    '1' );
FILE_NAME ('OtherClampBlock.STEP',
    '2012-06-27T21:50:06',
    ( '' ),
    ( '' ),
    'SwSTEP 2.0',
    'SolidWorks 2010',
    '' );
FILE_SCHEMA (( 'CONFIG_CONTROL_DESIGN' ));
ENDSEC;

DATA;
#1 = CLOSED_SHELL ( 'NONE', ( #410, #408, #409, #407, #406, #405, #404, #400, #401, #402, #403 ) ) ;
#2 = ORIENTED_EDGE ( 'NONE', *, *, #188, .T. ) ;
#3 = EDGE_LOOP ( 'NONE', ( #107, #109, #99, #31 ) ) ;
#4 = EDGE_LOOP ( 'NONE', ( #101, #108 ) ) ;
#5 = EDGE_LOOP ( 'NONE', ( #112, #111, #71, #96, #67, #61 ) ) ;
#6 = EDGE_LOOP ( 'NONE', ( #127, #120, #69, #124, #76 ) ) ;
#7 = VECTOR ( 'NONE', #155, 1000.000000000000000 ) ;
#8 = LINE ( 'NONE', #156, #7 ) ;
#9 = EDGE_LOOP ( 'NONE', ( #62, #65, #63, #64 ) ) ;
#10 = EDGE_LOOP ( 'NONE', ( #44, #2, #97, #130 ) ) ;
#11 = EDGE_LOOP ( 'NONE', ( #55, #53, #52, #54 ) ) ;
#12 = EDGE_LOOP ( 'NONE', ( #103, #47, #100, #102 ) ) ;
#13 = EDGE_LOOP ( 'NONE', ( #68, #60, #59, #58, #57, #56 ) ) ;
#14 = EDGE_LOOP ( 'NONE', ( #25, #106 ) ) ;
#15 = EDGE_LOOP ( 'NONE', ( #51, #50, #49, #48, #105 ) ) ;
#16 = EDGE_LOOP ( 'NONE', ( #91, #36, #95, #30 ) ) ;
#17 = EDGE_LOOP ( 'NONE', ( #27, #26, #74, #28 ) ) ;
#18 = PERSON ( 'UNSPECIFIED', 'UNSPECIFIED', 'UNSPECIFIED', ('UNSPECIFIED'), ('UNSPECIFIED'), ('UNSPECIFIED') ) ;
#19 = PRODUCT ( 'OtherClampBlock', 'OtherClampBlock', '', ( #306 ) ) ;
#20 = DATE_AND_TIME ( #149, #147 ) ;
#21 = DESIGN_CONTEXT ( 'detailed design', #302, 'design' ) ;
#22 = PRODUCT_DEFINITION_SHAPE ( 'NONE', 'NONE',  #183 ) ;
#23 =( BOUNDED_CURVE ( )  B_SPLINE_CURVE ( 3, ( #283, #285, #321, #319 ),
 .UNSPECIFIED., .F., .T. ) 
 B_SPLINE_CURVE_WITH_KNOTS ( ( 4, 4 ),
 ( 0.0000000000000000000, 3.141592653589793100 ),
 .UNSPECIFIED. ) 
 CURVE ( )  GEOMETRIC_REPRESENTATION_ITEM ( )  RATIONAL_B_SPLINE_CURVE ( ( 1.000000000000000000, 0.3333333333333333700, 0.3333333333333333700, 1.000000000000000000 ) ) 
 REPRESENTATION_ITEM ( '' )  );
#24 =( BOUNDED_CURVE ( )  B_SPLINE_CURVE ( 3, ( #374, #234, #239, #366 ),
 .UNSPECIFIED., .F., .T. ) 
 B_SPLINE_CURVE_WITH_KNOTS ( ( 4, 4 ),
 ( 3.141592653589793100, 6.283185307179586200 ),
 .UNSPECIFIED. ) 
 CURVE ( )  GEOMETRIC_REPRESENTATION_ITEM ( )  RATIONAL_B_SPLINE_CURVE ( ( 1.000000000000000000, 0.3333333333333333700, 0.3333333333333333700, 1.000000000000000000 ) ) 
 REPRESENTATION_ITEM ( '' )  );
#25 = ORIENTED_EDGE ( 'NONE', *, *, #180, .F. ) ;
#26 = ORIENTED_EDGE ( 'NONE', *, *, #203, .F. ) ;
#27 = ORIENTED_EDGE ( 'NONE', *, *, #175, .T. ) ;
#28 = ORIENTED_EDGE ( 'NONE', *, *, #216, .T. ) ;
#29 = VECTOR ( 'NONE', #367, 1000.000000000000100 ) ;
#30 = ORIENTED_EDGE ( 'NONE', *, *, #215, .F. ) ;
#31 = ORIENTED_EDGE ( 'NONE', *, *, #185, .T. ) ;
#32 = VECTOR ( 'NONE', #356, 1000.000000000000000 ) ;
#33 = LINE ( 'NONE', #379, #98 ) ;
#34 = LINE ( 'NONE', #348, #39 ) ;
#35 = VECTOR ( 'NONE', #253, 1000.000000000000000 ) ;
#36 = ORIENTED_EDGE ( 'NONE', *, *, #210, .T. ) ;
#37 = CIRCLE ( 'NONE', #192, 5.249999999999997300 ) ;
#38 = LINE ( 'NONE', #246, #125 ) ;
#39 = VECTOR ( 'NONE', #349, 1000.000000000000000 ) ;
#40 = VECTOR ( 'NONE', #329, 1000.000000000000000 ) ;
#41 = LINE ( 'NONE', #327, #40 ) ;
#42 = VECTOR ( 'NONE', #237, 1000.000000000000000 ) ;
#43 = VECTOR ( 'NONE', #323, 1000.000000000000000 ) ;
#44 = ORIENTED_EDGE ( 'NONE', *, *, #180, .T. ) ;
#45 = FACE_OUTER_BOUND ( 'NONE', #12, .T. ) ;
#46 = FACE_OUTER_BOUND ( 'NONE', #10, .T. ) ;
#47 = ORIENTED_EDGE ( 'NONE', *, *, #207, .T. ) ;
#48 = ORIENTED_EDGE ( 'NONE', *, *, #218, .F. ) ;
#49 = ORIENTED_EDGE ( 'NONE', *, *, #178, .F. ) ;
#50 = ORIENTED_EDGE ( 'NONE', *, *, #225, .F. ) ;
#51 = ORIENTED_EDGE ( 'NONE', *, *, #200, .T. ) ;
#52 = ORIENTED_EDGE ( 'NONE', *, *, #209, .F. ) ;
#53 = ORIENTED_EDGE ( 'NONE', *, *, #203, .T. ) ;
#54 = ORIENTED_EDGE ( 'NONE', *, *, #193, .T. ) ;
#55 = ORIENTED_EDGE ( 'NONE', *, *, #225, .T. ) ;
#56 = ORIENTED_EDGE ( 'NONE', *, *, #184, .F. ) ;
#57 = ORIENTED_EDGE ( 'NONE', *, *, #193, .F. ) ;
#58 = ORIENTED_EDGE ( 'NONE', *, *, #178, .T. ) ;
#59 = ORIENTED_EDGE ( 'NONE', *, *, #213, .T. ) ;
#60 = ORIENTED_EDGE ( 'NONE', *, *, #179, .T. ) ;
#61 = ORIENTED_EDGE ( 'NONE', *, *, #230, .F. ) ;
#62 = ORIENTED_EDGE ( 'NONE', *, *, #213, .F. ) ;
#63 = ORIENTED_EDGE ( 'NONE', *, *, #176, .T. ) ;
#64 = ORIENTED_EDGE ( 'NONE', *, *, #218, .T. ) ;
#65 = ORIENTED_EDGE ( 'NONE', *, *, #212, .F. ) ;
#66 = LINE ( 'NONE', #250, #42 ) ;
#67 = ORIENTED_EDGE ( 'NONE', *, *, #185, .F. ) ;
#68 = ORIENTED_EDGE ( 'NONE', *, *, #205, .F. ) ;
#69 = ORIENTED_EDGE ( 'NONE', *, *, #219, .T. ) ;
#70 = FACE_BOUND ( 'NONE', #4, .T. ) ;
#71 = ORIENTED_EDGE ( 'NONE', *, *, #195, .T. ) ;
#72 = LINE ( 'NONE', #272, #123 ) ;
#73 = LINE ( 'NONE', #157, #29 ) ;
#74 = ORIENTED_EDGE ( 'NONE', *, *, #200, .F. ) ;
#75 = VECTOR ( 'NONE', #243, 1000.000000000000000 ) ;
#76 = ORIENTED_EDGE ( 'NONE', *, *, #184, .T. ) ;
#77 = VECTOR ( 'NONE', #372, 1000.000000000000000 ) ;
#78 = LINE ( 'NONE', #326, #85 ) ;
#79 = VECTOR ( 'NONE', #303, 1000.000000000000000 ) ;
#80 = LINE ( 'NONE', #313, #119 ) ;
#81 = VECTOR ( 'NONE', #279, 1000.000000000000100 ) ;
#82 = LINE ( 'NONE', #337, #94 ) ;
#83 = VECTOR ( 'NONE', #280, 1000.000000000000000 ) ;
#84 = LINE ( 'NONE', #330, #79 ) ;
#85 = VECTOR ( 'NONE', #270, 1000.000000000000000 ) ;
#86 = LINE ( 'NONE', #247, #81 ) ;
#87 = LINE ( 'NONE', #235, #128 ) ;
#88 = VECTOR ( 'NONE', #318, 1000.000000000000000 ) ;
#89 = LINE ( 'NONE', #289, #88 ) ;
#90 = LINE ( 'NONE', #322, #43 ) ;
#91 = ORIENTED_EDGE ( 'NONE', *, *, #188, .F. ) ;
#92 = CYLINDRICAL_SURFACE ( 'NONE', #208, 5.249999999999997300 ) ;
#93 = CYLINDRICAL_SURFACE ( 'NONE', #233, 5.249999999999997300 ) ;
#94 = VECTOR ( 'NONE', #263, 1000.000000000000000 ) ;
#95 = ORIENTED_EDGE ( 'NONE', *, *, #181, .T. ) ;
#96 = ORIENTED_EDGE ( 'NONE', *, *, #176, .F. ) ;
#97 = ORIENTED_EDGE ( 'NONE', *, *, #186, .F. ) ;
#98 = VECTOR ( 'NONE', #262, 1000.000000000000000 ) ;
#99 = ORIENTED_EDGE ( 'NONE', *, *, #207, .F. ) ;
#100 = ORIENTED_EDGE ( 'NONE', *, *, #205, .T. ) ;
#101 = ORIENTED_EDGE ( 'NONE', *, *, #186, .T. ) ;
#102 = ORIENTED_EDGE ( 'NONE', *, *, #214, .T. ) ;
#103 = ORIENTED_EDGE ( 'NONE', *, *, #230, .T. ) ;
#104 = LINE ( 'NONE', #238, #32 ) ;
#105 = ORIENTED_EDGE ( 'NONE', *, *, #195, .F. ) ;
#106 = ORIENTED_EDGE ( 'NONE', *, *, #210, .F. ) ;
#107 = ORIENTED_EDGE ( 'NONE', *, *, #212, .T. ) ;
#108 = ORIENTED_EDGE ( 'NONE', *, *, #215, .T. ) ;
#109 = ORIENTED_EDGE ( 'NONE', *, *, #179, .F. ) ;
#110 = VECTOR ( 'NONE', #371, 1000.000000000000000 ) ;
#111 = ORIENTED_EDGE ( 'NONE', *, *, #216, .F. ) ;
#112 = ORIENTED_EDGE ( 'NONE', *, *, #219, .F. ) ;
#113 = LINE ( 'NONE', #236, #75 ) ;
#114 = FACE_OUTER_BOUND ( 'NONE', #15, .T. ) ;
#115 = FACE_OUTER_BOUND ( 'NONE', #6, .T. ) ;
#116 = LINE ( 'NONE', #252, #83 ) ;
#117 = LINE ( 'NONE', #378, #126 ) ;
#118 = LINE ( 'NONE', #391, #110 ) ;
#119 = VECTOR ( 'NONE', #257, 1000.000000000000000 ) ;
#120 = ORIENTED_EDGE ( 'NONE', *, *, #175, .F. ) ;
#121 = LINE ( 'NONE', #251, #35 ) ;
#122 = LINE ( 'NONE', #373, #77 ) ;
#123 = VECTOR ( 'NONE', #265, 1000.000000000000000 ) ;
#124 = ORIENTED_EDGE ( 'NONE', *, *, #214, .F. ) ;
#125 = VECTOR ( 'NONE', #261, 1000.000000000000000 ) ;
#126 = VECTOR ( 'NONE', #273, 1000.000000000000000 ) ;
#127 = ORIENTED_EDGE ( 'NONE', *, *, #209, .T. ) ;
#128 = VECTOR ( 'NONE', #245, 1000.000000000000000 ) ;
#129 = CIRCLE ( 'NONE', #217, 5.249999999999997300 ) ;
#130 = ORIENTED_EDGE ( 'NONE', *, *, #181, .F. ) ;
#131 = FACE_OUTER_BOUND ( 'NONE', #13, .T. ) ;
#132 = FACE_OUTER_BOUND ( 'NONE', #5, .T. ) ;
#133 = FACE_OUTER_BOUND ( 'NONE', #17, .T. ) ;
#134 = FACE_OUTER_BOUND ( 'NONE', #16, .T. ) ;
#135 = FACE_OUTER_BOUND ( 'NONE', #11, .T. ) ;
#136 = FACE_BOUND ( 'NONE', #14, .T. ) ;
#137 = FACE_OUTER_BOUND ( 'NONE', #3, .T. ) ;
#138 = FACE_OUTER_BOUND ( 'NONE', #9, .T. ) ;
#139 = APPROVAL_DATE_TIME ( #397, #189 ) ;
#140 = DATE_AND_TIME ( #150, #143 ) ;
#141 = PERSON_AND_ORGANIZATION ( #18, #172 ) ;
#142 = PERSON_AND_ORGANIZATION ( #18, #172 ) ;
#143 = LOCAL_TIME ( 16, 50, 6.000000000000000000, #151 ) ;
#144 = PERSON_AND_ORGANIZATION ( #18, #172 ) ;
#145 = COORDINATED_UNIVERSAL_TIME_OFFSET ( 6, 0, .BEHIND. ) ;
#146 = APPROVAL_DATE_TIME ( #140, #198 ) ;
#147 = LOCAL_TIME ( 16, 50, 6.000000000000000000, #145 ) ;
#148 = APPROVAL_PERSON_ORGANIZATION ( #161, #198, #264 ) ;
#149 = CALENDAR_DATE ( 2012, 27, 6 ) ;
#150 = CALENDAR_DATE ( 2012, 27, 6 ) ;
#151 = COORDINATED_UNIVERSAL_TIME_OFFSET ( 6, 0, .BEHIND. ) ;
#152 = UNCERTAINTY_MEASURE_WITH_UNIT (LENGTH_MEASURE( 1.000000000000000100E-005 ), #284, 'distance_accuracy_value', 'NONE');
#153 = ADVANCED_BREP_SHAPE_REPRESENTATION ( 'OtherClampBlock', ( #154, #220 ), #162 ) ;
#154 = MANIFOLD_SOLID_BREP ( 'Cut-Extrude5', #1 ) ;
#155 = DIRECTION ( 'NONE',  ( -0.0000000000000000000, -1.000000000000000000, -0.0000000000000000000 ) ) ;
#156 = CARTESIAN_POINT ( 'NONE',  ( 0.0000000000000000000, 88.90000000000000600, 0.0000000000000000000 ) ) ;
#157 = CARTESIAN_POINT ( 'NONE',  ( -16.47902486892298400, 88.90000000000000600, -13.92097513107701300 ) ) ;
#158 = PERSON_AND_ORGANIZATION ( #18, #172 ) ;
#159 = APPROVAL_PERSON_ORGANIZATION ( #158, #223, #328 ) ;
#160 = LOCAL_TIME ( 16, 50, 6.000000000000000000, #163 ) ;
#161 = PERSON_AND_ORGANIZATION ( #18, #172 ) ;
#162 =( GEOMETRIC_REPRESENTATION_CONTEXT ( 3 ) GLOBAL_UNCERTAINTY_ASSIGNED_CONTEXT ( ( #152 ) ) GLOBAL_UNIT_ASSIGNED_CONTEXT ( ( #284, #240, #362 ) ) REPRESENTATION_CONTEXT ( 'NONE', 'WORKASPACE' ) );
#163 = COORDINATED_UNIVERSAL_TIME_OFFSET ( 6, 0, .BEHIND. ) ;
#164 = DATE_AND_TIME ( #170, #166 ) ;
#165 = SHAPE_DEFINITION_REPRESENTATION ( #22, #153 ) ;
#166 = LOCAL_TIME ( 16, 50, 6.000000000000000000, #168 ) ;
#167 = DATE_AND_TIME ( #174, #160 ) ;
#168 = COORDINATED_UNIVERSAL_TIME_OFFSET ( 6, 0, .BEHIND. ) ;
#169 = APPROVAL_DATE_TIME ( #167, #223 ) ;
#170 = CALENDAR_DATE ( 2012, 27, 6 ) ;
#171 = PERSON_AND_ORGANIZATION ( #18, #172 ) ;
#172 = ORGANIZATION ( 'UNSPECIFIED', 'UNSPECIFIED', '' ) ;
#173 = PERSON_AND_ORGANIZATION ( #18, #172 ) ;
#174 = CALENDAR_DATE ( 2012, 27, 6 ) ;
#175 = EDGE_CURVE ( 'NONE', #389, #390, #73, .T. ) ;
#176 = EDGE_CURVE ( 'NONE', #393, #380, #8, .T. ) ;
#177 = SECURITY_CLASSIFICATION ( '', '', #338 ) ;
#178 = EDGE_CURVE ( 'NONE', #370, #376, #122, .T. ) ;
#179 = EDGE_CURVE ( 'NONE', #382, #375, #118, .T. ) ;
#180 = EDGE_CURVE ( 'NONE', #369, #385, #24, .T. ) ;
#181 = EDGE_CURVE ( 'NONE', #369, #383, #33, .T. ) ;
#182 = CC_DESIGN_SECURITY_CLASSIFICATION ( #177, ( #194 ) ) ;
#183 = PRODUCT_DEFINITION ( 'UNKNOWN', '', #194, #21 ) ;
#184 = EDGE_CURVE ( 'NONE', #387, #386, #38, .T. ) ;
#185 = EDGE_CURVE ( 'NONE', #392, #393, #116, .T. ) ;
#186 = EDGE_CURVE ( 'NONE', #383, #384, #37, .T. ) ;
#187 = AXIS2_PLACEMENT_3D ( 'NONE', #249, #316, #315 ) ;
#188 = EDGE_CURVE ( 'NONE', #385, #384, #80, .T. ) ;
#189 = APPROVAL ( #281, 'UNSPECIFIED' ) ;
#190 = AXIS2_PLACEMENT_3D ( 'NONE', #336, #365, #377 ) ;
#191 = CC_DESIGN_DATE_AND_TIME_ASSIGNMENT ( #164, #352, ( #183 ) ) ;
#192 = AXIS2_PLACEMENT_3D ( 'NONE', #287, #259, #308 ) ;
#193 = EDGE_CURVE ( 'NONE', #386, #376, #87, .T. ) ;
#194 = PRODUCT_DEFINITION_FORMATION_WITH_SPECIFIED_SOURCE ( 'ANY', '', #19, .NOT_KNOWN. ) ;
#195 = EDGE_CURVE ( 'NONE', #381, #380, #82, .T. ) ;
#196 = CC_DESIGN_PERSON_AND_ORGANIZATION_ASSIGNMENT ( #142, #355, ( #194 ) ) ;
#197 = CC_DESIGN_APPROVAL ( #198, ( #194 ) ) ;
#198 = APPROVAL ( #267, 'UNSPECIFIED' ) ;
#199 = CC_DESIGN_PERSON_AND_ORGANIZATION_ASSIGNMENT ( #173, #353, ( #183 ) ) ;
#200 = EDGE_CURVE ( 'NONE', #381, #368, #86, .T. ) ;
#201 = CC_DESIGN_PERSON_AND_ORGANIZATION_ASSIGNMENT ( #141, #335, ( #194 ) ) ;
#202 = CC_DESIGN_APPROVAL ( #223, ( #183 ) ) ;
#203 = EDGE_CURVE ( 'NONE', #368, #390, #78, .T. ) ;
#204 = CC_DESIGN_PERSON_AND_ORGANIZATION_ASSIGNMENT ( #171, #255, ( #19 ) ) ;
#205 = EDGE_CURVE ( 'NONE', #382, #387, #89, .T. ) ;
#206 = CC_DESIGN_APPROVAL ( #189, ( #177 ) ) ;
#207 = EDGE_CURVE ( 'NONE', #392, #382, #121, .T. ) ;
#208 = AXIS2_PLACEMENT_3D ( 'NONE', #357, #286, #314 ) ;
#209 = EDGE_CURVE ( 'NONE', #386, #390, #117, .T. ) ;
#210 = EDGE_CURVE ( 'NONE', #385, #369, #23, .T. ) ;
#211 = AXIS2_PLACEMENT_3D ( 'NONE', #298, #344, #345 ) ;
#212 = EDGE_CURVE ( 'NONE', #393, #375, #113, .T. ) ;
#213 = EDGE_CURVE ( 'NONE', #375, #370, #34, .T. ) ;
#214 = EDGE_CURVE ( 'NONE', #387, #388, #41, .T. ) ;
#215 = EDGE_CURVE ( 'NONE', #384, #383, #129, .T. ) ;
#216 = EDGE_CURVE ( 'NONE', #381, #389, #104, .T. ) ;
#217 = AXIS2_PLACEMENT_3D ( 'NONE', #277, #361, #278 ) ;
#218 = EDGE_CURVE ( 'NONE', #380, #370, #84, .T. ) ;
#219 = EDGE_CURVE ( 'NONE', #389, #388, #90, .T. ) ;
#220 = AXIS2_PLACEMENT_3D ( 'NONE', #351, #297, #350 ) ;
#221 = AXIS2_PLACEMENT_3D ( 'NONE', #341, #331, #334 ) ;
#222 = CC_DESIGN_PERSON_AND_ORGANIZATION_ASSIGNMENT ( #144, #339, ( #177 ) ) ;
#223 = APPROVAL ( #324, 'UNSPECIFIED' ) ;
#224 = PRODUCT_RELATED_PRODUCT_CATEGORY ( 'detail', '', ( #19 ) ) ;
#225 = EDGE_CURVE ( 'NONE', #376, #368, #66, .T. ) ;
#226 = AXIS2_PLACEMENT_3D ( 'NONE', #354, #274, #294 ) ;
#227 = AXIS2_PLACEMENT_3D ( 'NONE', #254, #296, #269 ) ;
#228 = AXIS2_PLACEMENT_3D ( 'NONE', #340, #268, #260 ) ;
#229 = AXIS2_PLACEMENT_3D ( 'NONE', #276, #312, #311 ) ;
#230 = EDGE_CURVE ( 'NONE', #388, #392, #72, .T. ) ;
#231 = AXIS2_PLACEMENT_3D ( 'NONE', #346, #359, #360 ) ;
#232 = CC_DESIGN_DATE_AND_TIME_ASSIGNMENT ( #20, #241, ( #177 ) ) ;
#233 = AXIS2_PLACEMENT_3D ( 'NONE', #320, #343, #299 ) ;
#234 = CARTESIAN_POINT ( 'NONE',  ( 43.34999999999999400, 46.65000000000001300, -73.74999999999992900 ) ) ;
#235 = CARTESIAN_POINT ( 'NONE',  ( 76.20000000000000300, 88.90000000000000600, -76.20000000000000300 ) ) ;
#236 = CARTESIAN_POINT ( 'NONE',  ( 7.776507174585693000E-015, 25.40000000000000600, 0.0000000000000000000 ) ) ;
#237 = DIRECTION ( 'NONE',  ( -1.000000000000000000, -0.0000000000000000000, -0.0000000000000000000 ) ) ;
#238 = CARTESIAN_POINT ( 'NONE',  ( 0.0000000000000000000, 0.0000000000000000000, -30.40000000000000200 ) ) ;
#239 = CARTESIAN_POINT ( 'NONE',  ( 32.84999999999999400, 46.65000000000001300, -63.24999999999995700 ) ) ;
#240 =( NAMED_UNIT ( * ) PLANE_ANGLE_UNIT ( ) SI_UNIT ( $, .RADIAN. ) );
#241 = DATE_TIME_ROLE ( 'classification_date' ) ;
#242 = CARTESIAN_POINT ( 'NONE',  ( 76.20000000000000300, 0.0000000000000000000, 0.0000000000000000000 ) ) ;
#243 = DIRECTION ( 'NONE',  ( 1.000000000000000000, 0.0000000000000000000, 0.0000000000000000000 ) ) ;
#244 = CARTESIAN_POINT ( 'NONE',  ( 7.776507174585693000E-015, 25.40000000000000600, -5.000000000000000000 ) ) ;
#245 = DIRECTION ( 'NONE',  ( -0.0000000000000000000, -1.000000000000000000, -0.0000000000000000000 ) ) ;
#246 = CARTESIAN_POINT ( 'NONE',  ( 76.20000000000000300, 88.90000000000000600, 0.0000000000000000000 ) ) ;
#247 = CARTESIAN_POINT ( 'NONE',  ( -16.47902486892298400, 0.0000000000000000000, -13.92097513107701300 ) ) ;
#248 = APPLICATION_PROTOCOL_DEFINITION ( 'international standard', 'config_control_design', 1994, #301 ) ;
#249 = CARTESIAN_POINT ( 'NONE',  ( 0.0000000000000000000, 88.90000000000000600, -76.20000000000000300 ) ) ;
#250 = CARTESIAN_POINT ( 'NONE',  ( 0.0000000000000000000, 0.0000000000000000000, -76.20000000000000300 ) ) ;
#251 = CARTESIAN_POINT ( 'NONE',  ( 7.776507174585693000E-015, 25.40000000000000600, -5.000000000000000000 ) ) ;
#252 = CARTESIAN_POINT ( 'NONE',  ( 7.776507174585693000E-015, 25.40000000000000600, -5.000000000000000000 ) ) ;
#253 = DIRECTION ( 'NONE',  ( 1.000000000000000000, 0.0000000000000000000, 0.0000000000000000000 ) ) ;
#254 = CARTESIAN_POINT ( 'NONE',  ( 0.0000000000000000000, 88.90000000000000600, 0.0000000000000000000 ) ) ;
#255 = PERSON_AND_ORGANIZATION_ROLE ( 'design_owner' ) ;
#256 = CARTESIAN_POINT ( 'NONE',  ( 76.20000000000000300, 25.40000000000000600, 0.0000000000000000000 ) ) ;
#257 = DIRECTION ( 'NONE',  ( -0.0000000000000000000, -0.0000000000000000000, 1.000000000000000000 ) ) ;
#258 = CARTESIAN_POINT ( 'NONE',  ( 76.20000000000000300, 0.0000000000000000000, -76.20000000000000300 ) ) ;
#259 = DIRECTION ( 'NONE',  ( 0.0000000000000000000, -0.0000000000000000000, -1.000000000000000000 ) ) ;
#260 = DIRECTION ( 'NONE',  ( 0.0000000000000000000, 0.0000000000000000000, 1.000000000000000000 ) ) ;
#261 = DIRECTION ( 'NONE',  ( 0.0000000000000000000, 0.0000000000000000000, -1.000000000000000000 ) ) ;
#262 = DIRECTION ( 'NONE',  ( -0.0000000000000000000, -0.0000000000000000000, 1.000000000000000000 ) ) ;
#263 = DIRECTION ( 'NONE',  ( -0.0000000000000000000, -0.0000000000000000000, 1.000000000000000000 ) ) ;
#264 = APPROVAL_ROLE ( '' ) ;
#265 = DIRECTION ( 'NONE',  ( 1.224646799147353200E-016, -1.000000000000000000, 0.0000000000000000000 ) ) ;
#266 = CARTESIAN_POINT ( 'NONE',  ( 32.84999999999999400, 57.14999999999999900, -5.000000000000004400 ) ) ;
#267 = APPROVAL_STATUS ( 'not_yet_approved' ) ;
#268 = DIRECTION ( 'NONE',  ( -1.000000000000000000, 0.0000000000000000000, 0.0000000000000000000 ) ) ;
#269 = DIRECTION ( 'NONE',  ( -1.000000000000000000, 0.0000000000000000000, -0.0000000000000000000 ) ) ;
#270 = DIRECTION ( 'NONE',  ( -0.0000000000000000000, 1.000000000000000000, -0.0000000000000000000 ) ) ;
#271 = PLANE ( 'NONE',  #229 ) ;
#272 = CARTESIAN_POINT ( 'NONE',  ( 0.0000000000000000000, 88.90000000000000600, -5.000000000000000000 ) ) ;
#273 = DIRECTION ( 'NONE',  ( -1.000000000000000000, -0.0000000000000000000, -0.0000000000000000000 ) ) ;
#274 = DIRECTION ( 'NONE',  ( 0.7071067811865475700, 0.0000000000000000000, 0.7071067811865475700 ) ) ;
#275 = APPLICATION_PROTOCOL_DEFINITION ( 'international standard', 'config_control_design', 1994, #302 ) ;
#276 = CARTESIAN_POINT ( 'NONE',  ( 0.0000000000000000000, 88.90000000000000600, -76.20000000000000300 ) ) ;
#277 = CARTESIAN_POINT ( 'NONE',  ( 38.09999999999999400, 57.14999999999999900, -5.000000000000004400 ) ) ;
#278 = DIRECTION ( 'NONE',  ( 1.000000000000000000, 0.0000000000000000000, 0.0000000000000000000 ) ) ;
#279 = DIRECTION ( 'NONE',  ( 0.7071067811865474600, 0.0000000000000000000, -0.7071067811865474600 ) ) ;
#280 = DIRECTION ( 'NONE',  ( -0.0000000000000000000, -0.0000000000000000000, 1.000000000000000000 ) ) ;
#281 = APPROVAL_STATUS ( 'not_yet_approved' ) ;
#282 = CARTESIAN_POINT ( 'NONE',  ( 76.20000000000000300, 88.90000000000000600, -5.000000000000002700 ) ) ;
#283 = CARTESIAN_POINT ( 'NONE',  ( 32.84999999999999400, 57.14999999999999900, -63.24999999999994300 ) ) ;
#284 =( LENGTH_UNIT ( ) NAMED_UNIT ( * ) SI_UNIT ( .MILLI., .METRE. ) );
#285 = CARTESIAN_POINT ( 'NONE',  ( 32.84999999999999400, 67.64999999999999100, -63.24999999999995700 ) ) ;
#286 = DIRECTION ( 'NONE',  ( -0.0000000000000000000, -0.0000000000000000000, 1.000000000000000000 ) ) ;
#287 = CARTESIAN_POINT ( 'NONE',  ( 38.09999999999999400, 57.14999999999999900, -5.000000000000004400 ) ) ;
#288 = CARTESIAN_POINT ( 'NONE',  ( 45.80000000000000400, 88.90000000000000600, -76.20000000000001700 ) ) ;
#289 = CARTESIAN_POINT ( 'NONE',  ( 76.20000000000000300, 88.90000000000000600, -5.000000000000000000 ) ) ;
#290 = CARTESIAN_POINT ( 'NONE',  ( 43.34999999999999400, 57.14999999999999900, -73.74999999999992900 ) ) ;
#291 = CARTESIAN_POINT ( 'NONE',  ( 43.34999999999999400, 57.14999999999999900, -5.000000000000004400 ) ) ;
#292 = CARTESIAN_POINT ( 'NONE',  ( 0.0000000000000000000, 88.90000000000000600, -30.40000000000000200 ) ) ;
#293 = PLANE ( 'NONE',  #190 ) ;
#294 = DIRECTION ( 'NONE',  ( 0.7071067811865474600, 0.0000000000000000000, -0.7071067811865474600 ) ) ;
#295 = PLANE ( 'NONE',  #227 ) ;
#296 = DIRECTION ( 'NONE',  ( 0.0000000000000000000, 0.0000000000000000000, -1.000000000000000000 ) ) ;
#297 = DIRECTION ( 'NONE',  ( 0.0000000000000000000, 0.0000000000000000000, 1.000000000000000000 ) ) ;
#298 = CARTESIAN_POINT ( 'NONE',  ( 0.0000000000000000000, 0.0000000000000000000, -76.20000000000000300 ) ) ;
#299 = DIRECTION ( 'NONE',  ( 1.000000000000000000, 0.0000000000000000000, 0.0000000000000000000 ) ) ;
#300 = CARTESIAN_POINT ( 'NONE',  ( 76.20000000000000300, 25.40000000000000600, -5.000000000000000000 ) ) ;
#301 = APPLICATION_CONTEXT ( 'configuration controlled 3d designs of mechanical parts and assemblies' ) ;
#302 = APPLICATION_CONTEXT ( 'configuration controlled 3d designs of mechanical parts and assemblies' ) ;
#303 = DIRECTION ( 'NONE',  ( 1.000000000000000000, 0.0000000000000000000, 0.0000000000000000000 ) ) ;
#304 = CARTESIAN_POINT ( 'NONE',  ( 0.0000000000000000000, 88.90000000000000600, -5.000000000000000000 ) ) ;
#305 = PLANE ( 'NONE',  #211 ) ;
#306 = MECHANICAL_CONTEXT ( 'NONE', #301, 'mechanical' ) ;
#307 = PLANE ( 'NONE',  #228 ) ;
#308 = DIRECTION ( 'NONE',  ( 1.000000000000000000, 0.0000000000000000000, 0.0000000000000000000 ) ) ;
#309 = APPROVAL_ROLE ( '' ) ;
#310 = CARTESIAN_POINT ( 'NONE',  ( 45.79999999999999700, 0.0000000000000000000, -76.20000000000000300 ) ) ;
#311 = DIRECTION ( 'NONE',  ( 1.000000000000000000, 0.0000000000000000000, -0.0000000000000000000 ) ) ;
#312 = DIRECTION ( 'NONE',  ( 0.0000000000000000000, 0.0000000000000000000, 1.000000000000000000 ) ) ;
#313 = CARTESIAN_POINT ( 'NONE',  ( 32.84999999999999400, 57.14999999999999900, -300.0000000000000000 ) ) ;
#314 = DIRECTION ( 'NONE',  ( 1.000000000000000000, 0.0000000000000000000, 0.0000000000000000000 ) ) ;
#315 = DIRECTION ( 'NONE',  ( 0.0000000000000000000, -0.0000000000000000000, -1.000000000000000000 ) ) ;
#316 = DIRECTION ( 'NONE',  ( 0.0000000000000000000, -1.000000000000000000, 0.0000000000000000000 ) ) ;
#317 = CARTESIAN_POINT ( 'NONE',  ( 32.84999999999999400, 57.14999999999999900, -63.24999999999994300 ) ) ;
#318 = DIRECTION ( 'NONE',  ( -0.0000000000000000000, 1.000000000000000000, -0.0000000000000000000 ) ) ;
#319 = CARTESIAN_POINT ( 'NONE',  ( 43.34999999999999400, 57.14999999999999900, -73.74999999999992900 ) ) ;
#320 = CARTESIAN_POINT ( 'NONE',  ( 38.09999999999999400, 57.14999999999999900, -300.0000000000000000 ) ) ;
#321 = CARTESIAN_POINT ( 'NONE',  ( 43.34999999999999400, 67.64999999999999100, -73.74999999999992900 ) ) ;
#322 = CARTESIAN_POINT ( 'NONE',  ( 0.0000000000000000000, 88.90000000000000600, 0.0000000000000000000 ) ) ;
#323 = DIRECTION ( 'NONE',  ( -0.0000000000000000000, -0.0000000000000000000, 1.000000000000000000 ) ) ;
#324 = APPROVAL_STATUS ( 'not_yet_approved' ) ;
#325 = CARTESIAN_POINT ( 'NONE',  ( 7.776507174585693000E-015, 25.40000000000000600, 0.0000000000000000000 ) ) ;
#326 = CARTESIAN_POINT ( 'NONE',  ( 45.80000000000000400, 0.0000000000000000000, -76.20000000000001700 ) ) ;
#327 = CARTESIAN_POINT ( 'NONE',  ( 0.0000000000000000000, 88.90000000000000600, -5.000000000000000000 ) ) ;
#328 = APPROVAL_ROLE ( '' ) ;
#329 = DIRECTION ( 'NONE',  ( -1.000000000000000000, -0.0000000000000000000, -0.0000000000000000000 ) ) ;
#330 = CARTESIAN_POINT ( 'NONE',  ( 0.0000000000000000000, 0.0000000000000000000, 0.0000000000000000000 ) ) ;
#331 = DIRECTION ( 'NONE',  ( -0.0000000000000000000, 0.0000000000000000000, 1.000000000000000000 ) ) ;
#332 = CARTESIAN_POINT ( 'NONE',  ( 0.0000000000000000000, 0.0000000000000000000, 0.0000000000000000000 ) ) ;
#333 = CARTESIAN_POINT ( 'NONE',  ( 0.0000000000000000000, 0.0000000000000000000, -30.40000000000000200 ) ) ;
#334 = DIRECTION ( 'NONE',  ( 1.000000000000000000, 0.0000000000000000000, 0.0000000000000000000 ) ) ;
#335 = PERSON_AND_ORGANIZATION_ROLE ( 'creator' ) ;
#336 = CARTESIAN_POINT ( 'NONE',  ( 0.0000000000000000000, 88.90000000000000600, 0.0000000000000000000 ) ) ;
#337 = CARTESIAN_POINT ( 'NONE',  ( 0.0000000000000000000, 0.0000000000000000000, 0.0000000000000000000 ) ) ;
#338 = SECURITY_CLASSIFICATION_LEVEL ( 'unclassified' ) ;
#339 = PERSON_AND_ORGANIZATION_ROLE ( 'classification_officer' ) ;
#340 = CARTESIAN_POINT ( 'NONE',  ( 76.20000000000000300, 88.90000000000000600, 0.0000000000000000000 ) ) ;
#341 = CARTESIAN_POINT ( 'NONE',  ( 7.776507174585693000E-015, 25.40000000000000600, -5.000000000000000000 ) ) ;
#342 = PLANE ( 'NONE',  #221 ) ;
#343 = DIRECTION ( 'NONE',  ( -0.0000000000000000000, -0.0000000000000000000, 1.000000000000000000 ) ) ;
#344 = DIRECTION ( 'NONE',  ( 0.0000000000000000000, -1.000000000000000000, 0.0000000000000000000 ) ) ;
#345 = DIRECTION ( 'NONE',  ( 0.0000000000000000000, -0.0000000000000000000, -1.000000000000000000 ) ) ;
#346 = CARTESIAN_POINT ( 'NONE',  ( 7.776507174585693000E-015, 25.40000000000000600, -5.000000000000000000 ) ) ;
#347 = PLANE ( 'NONE',  #231 ) ;
#348 = CARTESIAN_POINT ( 'NONE',  ( 76.20000000000000300, 88.90000000000000600, 0.0000000000000000000 ) ) ;
#349 = DIRECTION ( 'NONE',  ( -0.0000000000000000000, -1.000000000000000000, -0.0000000000000000000 ) ) ;
#350 = DIRECTION ( 'NONE',  ( 1.000000000000000000, 0.0000000000000000000, 0.0000000000000000000 ) ) ;
#351 = CARTESIAN_POINT ( 'NONE',  ( 0.0000000000000000000, 0.0000000000000000000, 0.0000000000000000000 ) ) ;
#352 = DATE_TIME_ROLE ( 'creation_date' ) ;
#353 = PERSON_AND_ORGANIZATION_ROLE ( 'creator' ) ;
#354 = CARTESIAN_POINT ( 'NONE',  ( -16.47902486892298400, 0.0000000000000000000, -13.92097513107701300 ) ) ;
#355 = PERSON_AND_ORGANIZATION_ROLE ( 'design_supplier' ) ;
#356 = DIRECTION ( 'NONE',  ( -0.0000000000000000000, 1.000000000000000000, -0.0000000000000000000 ) ) ;
#357 = CARTESIAN_POINT ( 'NONE',  ( 38.09999999999999400, 57.14999999999999900, -300.0000000000000000 ) ) ;
#358 = PLANE ( 'NONE',  #226 ) ;
#359 = DIRECTION ( 'NONE',  ( 0.0000000000000000000, -1.000000000000000000, 0.0000000000000000000 ) ) ;
#360 = DIRECTION ( 'NONE',  ( 0.0000000000000000000, -0.0000000000000000000, -1.000000000000000000 ) ) ;
#361 = DIRECTION ( 'NONE',  ( 0.0000000000000000000, -0.0000000000000000000, -1.000000000000000000 ) ) ;
#362 =( NAMED_UNIT ( * ) SI_UNIT ( $, .STERADIAN. ) SOLID_ANGLE_UNIT ( ) );
#363 = PLANE ( 'NONE',  #187 ) ;
#364 = CARTESIAN_POINT ( 'NONE',  ( 76.20000000000000300, 88.90000000000000600, -76.20000000000000300 ) ) ;
#365 = DIRECTION ( 'NONE',  ( 1.000000000000000000, -0.0000000000000000000, 0.0000000000000000000 ) ) ;
#366 = CARTESIAN_POINT ( 'NONE',  ( 32.84999999999999400, 57.14999999999999900, -63.24999999999994300 ) ) ;
#367 = DIRECTION ( 'NONE',  ( 0.7071067811865474600, 0.0000000000000000000, -0.7071067811865474600 ) ) ;
#368 = VERTEX_POINT ( 'NONE', #310 ) ;
#369 = VERTEX_POINT ( 'NONE', #290 ) ;
#370 = VERTEX_POINT ( 'NONE', #242 ) ;
#371 = DIRECTION ( 'NONE',  ( -0.0000000000000000000, -0.0000000000000000000, 1.000000000000000000 ) ) ;
#372 = DIRECTION ( 'NONE',  ( 0.0000000000000000000, 0.0000000000000000000, -1.000000000000000000 ) ) ;
#373 = CARTESIAN_POINT ( 'NONE',  ( 76.20000000000000300, 0.0000000000000000000, 0.0000000000000000000 ) ) ;
#374 = CARTESIAN_POINT ( 'NONE',  ( 43.34999999999999400, 57.14999999999999900, -73.74999999999992900 ) ) ;
#375 = VERTEX_POINT ( 'NONE', #256 ) ;
#376 = VERTEX_POINT ( 'NONE', #258 ) ;
#377 = DIRECTION ( 'NONE',  ( 0.0000000000000000000, 0.0000000000000000000, -1.000000000000000000 ) ) ;
#378 = CARTESIAN_POINT ( 'NONE',  ( 0.0000000000000000000, 88.90000000000000600, -76.20000000000000300 ) ) ;
#379 = CARTESIAN_POINT ( 'NONE',  ( 43.34999999999999400, 57.14999999999999900, -300.0000000000000000 ) ) ;
#380 = VERTEX_POINT ( 'NONE', #332 ) ;
#381 = VERTEX_POINT ( 'NONE', #333 ) ;
#382 = VERTEX_POINT ( 'NONE', #300 ) ;
#383 = VERTEX_POINT ( 'NONE', #291 ) ;
#384 = VERTEX_POINT ( 'NONE', #266 ) ;
#385 = VERTEX_POINT ( 'NONE', #317 ) ;
#386 = VERTEX_POINT ( 'NONE', #364 ) ;
#387 = VERTEX_POINT ( 'NONE', #282 ) ;
#388 = VERTEX_POINT ( 'NONE', #304 ) ;
#389 = VERTEX_POINT ( 'NONE', #292 ) ;
#390 = VERTEX_POINT ( 'NONE', #288 ) ;
#391 = CARTESIAN_POINT ( 'NONE',  ( 76.20000000000000300, 25.40000000000000600, -5.000000000000000000 ) ) ;
#392 = VERTEX_POINT ( 'NONE', #244 ) ;
#393 = VERTEX_POINT ( 'NONE', #325 ) ;
#394 = APPROVAL_PERSON_ORGANIZATION ( #396, #189, #309 ) ;
#395 = CALENDAR_DATE ( 2012, 27, 6 ) ;
#396 = PERSON_AND_ORGANIZATION ( #18, #172 ) ;
#397 = DATE_AND_TIME ( #395, #398 ) ;
#398 = LOCAL_TIME ( 16, 50, 6.000000000000000000, #399 ) ;
#399 = COORDINATED_UNIVERSAL_TIME_OFFSET ( 6, 0, .BEHIND. ) ;
#400 = ADVANCED_FACE ( 'NONE', ( #114 ), #305, .T. ) ;
#401 = ADVANCED_FACE ( 'NONE', ( #45, #70 ), #342, .T. ) ;
#402 = ADVANCED_FACE ( 'NONE', ( #137 ), #347, .F. ) ;
#403 = ADVANCED_FACE ( 'NONE', ( #133, #136 ), #358, .F. ) ;
#404 = ADVANCED_FACE ( 'NONE', ( #135 ), #271, .F. ) ;
#405 = ADVANCED_FACE ( 'NONE', ( #131 ), #307, .F. ) ;
#406 = ADVANCED_FACE ( 'NONE', ( #138 ), #295, .F. ) ;
#407 = ADVANCED_FACE ( 'NONE', ( #132 ), #293, .F. ) ;
#408 = ADVANCED_FACE ( 'NONE', ( #115 ), #363, .F. ) ;
#409 = ADVANCED_FACE ( 'NONE', ( #134 ), #93, .F. ) ;
#410 = ADVANCED_FACE ( 'NONE', ( #46 ), #92, .F. ) ;
ENDSEC;
END-ISO-10303-21;
