ISO-10303-21;
HEADER;
FILE_DESCRIPTION (( 'STEP AP203' ),
    '1' );
FILE_NAME ('BridgeBar.STEP',
    '2012-06-07T23:37:42',
    ( '' ),
    ( '' ),
    'SwSTEP 2.0',
    'SolidWorks 2010',
    '' );
FILE_SCHEMA (( 'CONFIG_CONTROL_DESIGN' ));
ENDSEC;

DATA;
#1 = ADVANCED_FACE ( 'NONE', ( #209 ), #26, .T. ) ;
#2 = ADVANCED_FACE ( 'NONE', ( #241 ), #25, .F. ) ;
#3 = ADVANCED_FACE ( 'NONE', ( #208 ), #204, .F. ) ;
#4 = PRODUCT ( 'BridgeBar', 'BridgeBar', '', ( #53 ) ) ;
#5 = PERSON ( 'UNSPECIFIED', 'UNSPECIFIED', 'UNSPECIFIED', ('UNSPECIFIED'), ('UNSPECIFIED'), ('UNSPECIFIED') ) ;
#6 = APPLICATION_PROTOCOL_DEFINITION ( 'international standard', 'config_control_design', 1994, #7 ) ;
#7 = APPLICATION_CONTEXT ( 'configuration controlled 3d designs of mechanical parts and assemblies' ) ;
#8 = DIRECTION ( 'NONE',  ( 1.000000000000000000, 0.0000000000000000000, 0.0000000000000000000 ) ) ;
#9 = CARTESIAN_POINT ( 'NONE',  ( 0.0000000000000000000, 0.0000000000000000000, 0.0000000000000000000 ) ) ;
#10 =( NAMED_UNIT ( * ) SI_UNIT ( $, .STERADIAN. ) SOLID_ANGLE_UNIT ( ) );
#11 =( NAMED_UNIT ( * ) PLANE_ANGLE_UNIT ( ) SI_UNIT ( $, .RADIAN. ) );
#12 = DIRECTION ( 'NONE',  ( 1.000000000000000000, -0.0000000000000000000, -0.0000000000000000000 ) ) ;
#13 = CARTESIAN_POINT ( 'NONE',  ( -474.6000000000000200, 100.0000000000000000, -56.00000000000000700 ) ) ;
#14 = VERTEX_POINT ( 'NONE', #116 ) ;
#15 = DIRECTION ( 'NONE',  ( 0.0000000000000000000, 0.0000000000000000000, 1.000000000000000000 ) ) ;
#16 = DIRECTION ( 'NONE',  ( -0.0000000000000000000, -1.000000000000000000, -0.0000000000000000000 ) ) ;
#17 = CARTESIAN_POINT ( 'NONE',  ( 0.0000000000000000000, 140.0000000000000000, 0.0000000000000000000 ) ) ;
#18 = VERTEX_POINT ( 'NONE', #114 ) ;
#19 = VERTEX_POINT ( 'NONE', #113 ) ;
#20 = DIRECTION ( 'NONE',  ( 1.000000000000000000, -0.0000000000000000000, -0.0000000000000000000 ) ) ;
#21 = VERTEX_POINT ( 'NONE', #112 ) ;
#22 = DIRECTION ( 'NONE',  ( 0.0000000000000000000, 0.0000000000000000000, -1.000000000000000000 ) ) ;
#23 = DIRECTION ( 'NONE',  ( 1.000000000000000000, 0.0000000000000000000, 0.0000000000000000000 ) ) ;
#24 = CARTESIAN_POINT ( 'NONE',  ( 0.0000000000000000000, 0.0000000000000000000, -127.0000000000000000 ) ) ;
#25 = PLANE ( 'NONE',  #279 ) ;
#26 = PLANE ( 'NONE',  #280 ) ;
#27 =( LENGTH_UNIT ( ) NAMED_UNIT ( * ) SI_UNIT ( .MILLI., .METRE. ) );
#28 = DIRECTION ( 'NONE',  ( 1.000000000000000000, 0.0000000000000000000, 0.0000000000000000000 ) ) ;
#29 = CARTESIAN_POINT ( 'NONE',  ( 0.0000000000000000000, 140.0000000000000000, 0.0000000000000000000 ) ) ;
#30 = CARTESIAN_POINT ( 'NONE',  ( 25.39999999999999900, 140.0000000000000000, -127.0000000000000000 ) ) ;
#31 = DIRECTION ( 'NONE',  ( -0.0000000000000000000, -0.0000000000000000000, 1.000000000000000000 ) ) ;
#32 = CARTESIAN_POINT ( 'NONE',  ( 0.0000000000000000000, 140.0000000000000000, 0.0000000000000000000 ) ) ;
#33 = DIRECTION ( 'NONE',  ( -1.000000000000000000, -0.0000000000000000000, -0.0000000000000000000 ) ) ;
#34 = VERTEX_POINT ( 'NONE', #111 ) ;
#35 = CARTESIAN_POINT ( 'NONE',  ( 0.0000000000000000000, 0.0000000000000000000, -127.0000000000000000 ) ) ;
#36 = VERTEX_POINT ( 'NONE', #110 ) ;
#37 = DIRECTION ( 'NONE',  ( -1.000000000000000000, -0.0000000000000000000, -0.0000000000000000000 ) ) ;
#38 = CARTESIAN_POINT ( 'NONE',  ( 0.0000000000000000000, 140.0000000000000000, -127.0000000000000000 ) ) ;
#39 = DIRECTION ( 'NONE',  ( 0.0000000000000000000, 0.0000000000000000000, -1.000000000000000000 ) ) ;
#40 = CARTESIAN_POINT ( 'NONE',  ( 25.39999999999999900, 100.0000000000000000, -40.00000000000000700 ) ) ;
#41 = DIRECTION ( 'NONE',  ( 0.0000000000000000000, 0.0000000000000000000, -1.000000000000000000 ) ) ;
#42 = DIRECTION ( 'NONE',  ( 1.000000000000000000, 0.0000000000000000000, 0.0000000000000000000 ) ) ;
#43 = PERSON_AND_ORGANIZATION_ROLE ( 'classification_officer' ) ;
#44 = DIRECTION ( 'NONE',  ( 0.0000000000000000000, 0.0000000000000000000, -1.000000000000000000 ) ) ;
#45 = CARTESIAN_POINT ( 'NONE',  ( 25.39999999999999900, 0.0000000000000000000, 0.0000000000000000000 ) ) ;
#46 = CARTESIAN_POINT ( 'NONE',  ( -474.6000000000000200, 100.0000000000000000, -24.00000000000000400 ) ) ;
#47 = DIRECTION ( 'NONE',  ( 1.000000000000000000, 0.0000000000000000000, 0.0000000000000000000 ) ) ;
#48 = CARTESIAN_POINT ( 'NONE',  ( 25.39999999999999900, 140.0000000000000000, 0.0000000000000000000 ) ) ;
#49 = SECURITY_CLASSIFICATION_LEVEL ( 'unclassified' ) ;
#50 = CARTESIAN_POINT ( 'NONE',  ( 0.0000000000000000000, 0.0000000000000000000, 0.0000000000000000000 ) ) ;
#51 = PERSON_AND_ORGANIZATION_ROLE ( 'design_owner' ) ;
#52 = DIRECTION ( 'NONE',  ( -0.0000000000000000000, -1.000000000000000000, -0.0000000000000000000 ) ) ;
#53 = MECHANICAL_CONTEXT ( 'NONE', #7, 'mechanical' ) ;
#54 = APPLICATION_CONTEXT ( 'configuration controlled 3d designs of mechanical parts and assemblies' ) ;
#55 = PERSON_AND_ORGANIZATION_ROLE ( 'creator' ) ;
#56 = APPROVAL_ROLE ( '' ) ;
#57 = DATE_TIME_ROLE ( 'creation_date' ) ;
#58 = PERSON_AND_ORGANIZATION_ROLE ( 'design_supplier' ) ;
#59 = APPROVAL_STATUS ( 'not_yet_approved' ) ;
#60 = APPROVAL_ROLE ( '' ) ;
#61 = PERSON_AND_ORGANIZATION_ROLE ( 'creator' ) ;
#62 = DIRECTION ( 'NONE',  ( -0.0000000000000000000, -0.0000000000000000000, 1.000000000000000000 ) ) ;
#63 = APPLICATION_PROTOCOL_DEFINITION ( 'international standard', 'config_control_design', 1994, #54 ) ;
#64 = APPROVAL_STATUS ( 'not_yet_approved' ) ;
#65 = CARTESIAN_POINT ( 'NONE',  ( 0.0000000000000000000, 0.0000000000000000000, 0.0000000000000000000 ) ) ;
#66 = DIRECTION ( 'NONE',  ( 0.0000000000000000000, 0.0000000000000000000, -1.000000000000000000 ) ) ;
#67 = DIRECTION ( 'NONE',  ( 1.000000000000000000, -0.0000000000000000000, 0.0000000000000000000 ) ) ;
#68 = CARTESIAN_POINT ( 'NONE',  ( 0.0000000000000000000, 100.0000000000000000, -40.00000000000000700 ) ) ;
#69 = DIRECTION ( 'NONE',  ( -0.0000000000000000000, -1.000000000000000000, -0.0000000000000000000 ) ) ;
#70 = CARTESIAN_POINT ( 'NONE',  ( 25.39999999999999900, 140.0000000000000000, 0.0000000000000000000 ) ) ;
#71 = DIRECTION ( 'NONE',  ( 0.0000000000000000000, 0.0000000000000000000, -1.000000000000000000 ) ) ;
#72 = DIRECTION ( 'NONE',  ( 0.0000000000000000000, 0.0000000000000000000, 1.000000000000000000 ) ) ;
#73 = DIRECTION ( 'NONE',  ( -1.000000000000000000, 0.0000000000000000000, 0.0000000000000000000 ) ) ;
#74 = DIRECTION ( 'NONE',  ( 1.000000000000000000, -0.0000000000000000000, 0.0000000000000000000 ) ) ;
#75 = CARTESIAN_POINT ( 'NONE',  ( 0.0000000000000000000, 100.0000000000000000, -40.00000000000000700 ) ) ;
#76 = VERTEX_POINT ( 'NONE', #109 ) ;
#77 = DIRECTION ( 'NONE',  ( 0.0000000000000000000, 0.0000000000000000000, -1.000000000000000000 ) ) ;
#78 = DIRECTION ( 'NONE',  ( 1.000000000000000000, -0.0000000000000000000, 0.0000000000000000000 ) ) ;
#79 = CARTESIAN_POINT ( 'NONE',  ( 0.0000000000000000000, 140.0000000000000000, -127.0000000000000000 ) ) ;
#80 = PLANE ( 'NONE',  #276 ) ;
#81 = VERTEX_POINT ( 'NONE', #108 ) ;
#82 = CARTESIAN_POINT ( 'NONE',  ( 0.0000000000000000000, 140.0000000000000000, 0.0000000000000000000 ) ) ;
#83 = CARTESIAN_POINT ( 'NONE',  ( 25.39999999999999900, 140.0000000000000000, 0.0000000000000000000 ) ) ;
#84 = PLANE ( 'NONE',  #301 ) ;
#85 = DIRECTION ( 'NONE',  ( -1.000000000000000000, 0.0000000000000000000, -0.0000000000000000000 ) ) ;
#86 = CARTESIAN_POINT ( 'NONE',  ( 0.0000000000000000000, 140.0000000000000000, -127.0000000000000000 ) ) ;
#87 = DIRECTION ( 'NONE',  ( 0.0000000000000000000, 0.0000000000000000000, -1.000000000000000000 ) ) ;
#88 = APPROVAL_ROLE ( '' ) ;
#89 = DIRECTION ( 'NONE',  ( 1.000000000000000000, -0.0000000000000000000, -0.0000000000000000000 ) ) ;
#90 = CARTESIAN_POINT ( 'NONE',  ( -474.6000000000000200, 100.0000000000000000, -40.00000000000000700 ) ) ;
#91 = DIRECTION ( 'NONE',  ( 1.000000000000000000, 0.0000000000000000000, -0.0000000000000000000 ) ) ;
#92 = DIRECTION ( 'NONE',  ( 0.0000000000000000000, 0.0000000000000000000, 1.000000000000000000 ) ) ;
#93 = VERTEX_POINT ( 'NONE', #115 ) ;
#94 = APPROVAL_STATUS ( 'not_yet_approved' ) ;
#95 = DIRECTION ( 'NONE',  ( 0.0000000000000000000, 0.0000000000000000000, -1.000000000000000000 ) ) ;
#96 = DATE_TIME_ROLE ( 'classification_date' ) ;
#97 = PLANE ( 'NONE',  #275 ) ;
#98 = CARTESIAN_POINT ( 'NONE',  ( 0.0000000000000000000, 140.0000000000000000, 0.0000000000000000000 ) ) ;
#99 = DIRECTION ( 'NONE',  ( -0.0000000000000000000, -1.000000000000000000, -0.0000000000000000000 ) ) ;
#100 = PLANE ( 'NONE',  #274 ) ;
#101 = VERTEX_POINT ( 'NONE', #107 ) ;
#102 = CARTESIAN_POINT ( 'NONE',  ( 0.0000000000000000000, 140.0000000000000000, -127.0000000000000000 ) ) ;
#103 = CARTESIAN_POINT ( 'NONE',  ( 25.39999999999999900, 100.0000000000000000, -24.00000000000000400 ) ) ;
#104 = CARTESIAN_POINT ( 'NONE',  ( 25.39999999999999900, 140.0000000000000000, -127.0000000000000000 ) ) ;
#105 = CARTESIAN_POINT ( 'NONE',  ( 25.39999999999999900, 100.0000000000000000, -40.00000000000000700 ) ) ;
#106 = VERTEX_POINT ( 'NONE', #104 ) ;
#107 = CARTESIAN_POINT ( 'NONE',  ( 0.0000000000000000000, 140.0000000000000000, 0.0000000000000000000 ) ) ;
#108 = CARTESIAN_POINT ( 'NONE',  ( 25.39999999999999900, 0.0000000000000000000, -127.0000000000000000 ) ) ;
#109 = CARTESIAN_POINT ( 'NONE',  ( 25.39999999999999900, 100.0000000000000000, -56.00000000000000700 ) ) ;
#110 = CARTESIAN_POINT ( 'NONE',  ( 0.0000000000000000000, 0.0000000000000000000, -127.0000000000000000 ) ) ;
#111 = CARTESIAN_POINT ( 'NONE',  ( 25.39999999999999900, 0.0000000000000000000, 0.0000000000000000000 ) ) ;
#112 = CARTESIAN_POINT ( 'NONE',  ( 0.0000000000000000000, 100.0000000000000000, -56.00000000000000700 ) ) ;
#113 = CARTESIAN_POINT ( 'NONE',  ( 0.0000000000000000000, 100.0000000000000000, -24.00000000000000400 ) ) ;
#114 = CARTESIAN_POINT ( 'NONE',  ( 0.0000000000000000000, 0.0000000000000000000, 0.0000000000000000000 ) ) ;
#115 = CARTESIAN_POINT ( 'NONE',  ( 0.0000000000000000000, 140.0000000000000000, -127.0000000000000000 ) ) ;
#116 = CARTESIAN_POINT ( 'NONE',  ( 25.39999999999999900, 140.0000000000000000, 0.0000000000000000000 ) ) ;
#117 = DIRECTION ( 'NONE',  ( 0.0000000000000000000, -0.0000000000000000000, -1.000000000000000000 ) ) ;
#118 = DIRECTION ( 'NONE',  ( 0.0000000000000000000, -1.000000000000000000, 0.0000000000000000000 ) ) ;
#119 = DIRECTION ( 'NONE',  ( 1.000000000000000000, -0.0000000000000000000, -0.0000000000000000000 ) ) ;
#120 = CARTESIAN_POINT ( 'NONE',  ( -474.6000000000000200, 100.0000000000000000, -40.00000000000000700 ) ) ;
#121 = DIRECTION ( 'NONE',  ( 0.0000000000000000000, -0.0000000000000000000, -1.000000000000000000 ) ) ;
#122 = DIRECTION ( 'NONE',  ( 0.0000000000000000000, -1.000000000000000000, 0.0000000000000000000 ) ) ;
#123 = DIRECTION ( 'NONE',  ( 0.0000000000000000000, 0.0000000000000000000, -1.000000000000000000 ) ) ;
#124 = VERTEX_POINT ( 'NONE', #103 ) ;
#125 = ADVANCED_FACE ( 'NONE', ( #207 ), #100, .F. ) ;
#126 = ADVANCED_FACE ( 'NONE', ( #203 ), #97, .F. ) ;
#127 = ADVANCED_FACE ( 'NONE', ( #205 ), #201, .F. ) ;
#128 = ADVANCED_FACE ( 'NONE', ( #202, #200 ), #80, .F. ) ;
#129 = ADVANCED_FACE ( 'NONE', ( #206, #242 ), #84, .F. ) ;
#130 = PRODUCT_DEFINITION_SHAPE ( 'NONE', 'NONE',  #281 ) ;
#131 = DESIGN_CONTEXT ( 'detailed design', #54, 'design' ) ;
#132 = LOCAL_TIME ( 18, 37, 41.00000000000000000, #134 ) ;
#133 = EDGE_LOOP ( 'NONE', ( #244, #248, #243, #247 ) ) ;
#134 = COORDINATED_UNIVERSAL_TIME_OFFSET ( 6, 0, .BEHIND. ) ;
#135 = PERSON_AND_ORGANIZATION ( #5, #161 ) ;
#136 = PERSON_AND_ORGANIZATION ( #5, #161 ) ;
#137 = PERSON_AND_ORGANIZATION ( #5, #161 ) ;
#138 = APPROVAL_DATE_TIME ( #139, #306 ) ;
#139 = DATE_AND_TIME ( #140, #141 ) ;
#140 = CALENDAR_DATE ( 2012, 7, 6 ) ;
#141 = LOCAL_TIME ( 18, 37, 41.00000000000000000, #142 ) ;
#142 = COORDINATED_UNIVERSAL_TIME_OFFSET ( 6, 0, .BEHIND. ) ;
#143 = APPROVAL_PERSON_ORGANIZATION ( #144, #306, #60 ) ;
#144 = PERSON_AND_ORGANIZATION ( #5, #161 ) ;
#145 = DATE_AND_TIME ( #147, #148 ) ;
#146 = EDGE_LOOP ( 'NONE', ( #211, #212, #216, #213 ) ) ;
#147 = CALENDAR_DATE ( 2012, 7, 6 ) ;
#148 = LOCAL_TIME ( 18, 37, 41.00000000000000000, #151 ) ;
#149 = EDGE_LOOP ( 'NONE', ( #236, #235 ) ) ;
#150 = EDGE_LOOP ( 'NONE', ( #245, #238, #239, #237 ) ) ;
#151 = COORDINATED_UNIVERSAL_TIME_OFFSET ( 6, 0, .BEHIND. ) ;
#152 = PERSON_AND_ORGANIZATION ( #5, #161 ) ;
#153 = APPROVAL_DATE_TIME ( #154, #299 ) ;
#154 = DATE_AND_TIME ( #155, #156 ) ;
#155 = CALENDAR_DATE ( 2012, 7, 6 ) ;
#156 = LOCAL_TIME ( 18, 37, 41.00000000000000000, #157 ) ;
#157 = COORDINATED_UNIVERSAL_TIME_OFFSET ( 6, 0, .BEHIND. ) ;
#158 = APPROVAL_PERSON_ORGANIZATION ( #159, #299, #56 ) ;
#159 = PERSON_AND_ORGANIZATION ( #5, #161 ) ;
#160 = PERSON_AND_ORGANIZATION ( #5, #161 ) ;
#161 = ORGANIZATION ( 'UNSPECIFIED', 'UNSPECIFIED', '' ) ;
#162 = SHAPE_DEFINITION_REPRESENTATION ( #130, #261 ) ;
#163 =( GEOMETRIC_REPRESENTATION_CONTEXT ( 3 ) GLOBAL_UNCERTAINTY_ASSIGNED_CONTEXT ( ( #262 ) ) GLOBAL_UNIT_ASSIGNED_CONTEXT ( ( #27, #11, #10 ) ) REPRESENTATION_CONTEXT ( 'NONE', 'WORKASPACE' ) );
#164 = VECTOR ( 'NONE', #12, 1000.000000000000000 ) ;
#165 = LINE ( 'NONE', #13, #164 ) ;
#166 = VECTOR ( 'NONE', #16, 1000.000000000000000 ) ;
#167 = LINE ( 'NONE', #17, #166 ) ;
#168 = CIRCLE ( 'NONE', #273, 16.00000000000000000 ) ;
#169 = LINE ( 'NONE', #46, #180 ) ;
#170 = VECTOR ( 'NONE', #28, 1000.000000000000000 ) ;
#171 = LINE ( 'NONE', #29, #170 ) ;
#172 = VECTOR ( 'NONE', #31, 1000.000000000000000 ) ;
#173 = LINE ( 'NONE', #32, #172 ) ;
#174 = VECTOR ( 'NONE', #33, 1000.000000000000000 ) ;
#175 = LINE ( 'NONE', #35, #174 ) ;
#176 = VECTOR ( 'NONE', #37, 1000.000000000000000 ) ;
#177 = LINE ( 'NONE', #38, #176 ) ;
#178 = CIRCLE ( 'NONE', #282, 16.00000000000000000 ) ;
#179 = LINE ( 'NONE', #45, #181 ) ;
#180 = VECTOR ( 'NONE', #20, 1000.000000000000000 ) ;
#181 = VECTOR ( 'NONE', #39, 1000.000000000000000 ) ;
#182 = VECTOR ( 'NONE', #44, 1000.000000000000000 ) ;
#183 = VECTOR ( 'NONE', #47, 1000.000000000000000 ) ;
#184 = ORIENTED_EDGE ( 'NONE', *, *, #293, .T. ) ;
#185 = ORIENTED_EDGE ( 'NONE', *, *, #295, .T. ) ;
#186 = VECTOR ( 'NONE', #99, 1000.000000000000000 ) ;
#187 = VECTOR ( 'NONE', #52, 1000.000000000000000 ) ;
#188 = LINE ( 'NONE', #30, #187 ) ;
#189 = CIRCLE ( 'NONE', #302, 16.00000000000000000 ) ;
#190 = LINE ( 'NONE', #70, #186 ) ;
#191 = LINE ( 'NONE', #50, #183 ) ;
#192 = EDGE_LOOP ( 'NONE', ( #230, #229, #228, #227 ) ) ;
#193 = LINE ( 'NONE', #48, #182 ) ;
#194 = CIRCLE ( 'NONE', #277, 16.00000000000000000 ) ;
#195 = EDGE_LOOP ( 'NONE', ( #234, #233, #232, #231 ) ) ;
#196 = LINE ( 'NONE', #79, #198 ) ;
#197 = VECTOR ( 'NONE', #62, 1000.000000000000000 ) ;
#198 = VECTOR ( 'NONE', #69, 1000.000000000000000 ) ;
#199 = LINE ( 'NONE', #65, #197 ) ;
#200 = FACE_OUTER_BOUND ( 'NONE', #146, .T. ) ;
#201 = CYLINDRICAL_SURFACE ( 'NONE', #300, 16.00000000000000000 ) ;
#202 = FACE_BOUND ( 'NONE', #259, .T. ) ;
#203 = FACE_OUTER_BOUND ( 'NONE', #150, .T. ) ;
#204 = CYLINDRICAL_SURFACE ( 'NONE', #278, 16.00000000000000000 ) ;
#205 = FACE_OUTER_BOUND ( 'NONE', #133, .T. ) ;
#206 = FACE_BOUND ( 'NONE', #149, .T. ) ;
#207 = FACE_OUTER_BOUND ( 'NONE', #192, .T. ) ;
#208 = FACE_OUTER_BOUND ( 'NONE', #257, .T. ) ;
#209 = FACE_OUTER_BOUND ( 'NONE', #214, .T. ) ;
#210 = ORIENTED_EDGE ( 'NONE', *, *, #283, .T. ) ;
#211 = ORIENTED_EDGE ( 'NONE', *, *, #286, .T. ) ;
#212 = ORIENTED_EDGE ( 'NONE', *, *, #303, .F. ) ;
#213 = ORIENTED_EDGE ( 'NONE', *, *, #284, .T. ) ;
#214 = EDGE_LOOP ( 'NONE', ( #256, #255, #254, #253 ) ) ;
#215 = DATE_AND_TIME ( #218, #132 ) ;
#216 = ORIENTED_EDGE ( 'NONE', *, *, #295, .F. ) ;
#217 = EDGE_LOOP ( 'NONE', ( #185, #226, #258, #184 ) ) ;
#218 = CALENDAR_DATE ( 2012, 7, 6 ) ;
#219 = PERSON_AND_ORGANIZATION ( #5, #161 ) ;
#220 = APPROVAL_DATE_TIME ( #221, #263 ) ;
#221 = DATE_AND_TIME ( #222, #223 ) ;
#222 = CALENDAR_DATE ( 2012, 7, 6 ) ;
#223 = LOCAL_TIME ( 18, 37, 41.00000000000000000, #224 ) ;
#224 = COORDINATED_UNIVERSAL_TIME_OFFSET ( 6, 0, .BEHIND. ) ;
#225 = APPROVAL_PERSON_ORGANIZATION ( #219, #263, #88 ) ;
#226 = ORIENTED_EDGE ( 'NONE', *, *, #296, .T. ) ;
#227 = ORIENTED_EDGE ( 'NONE', *, *, #287, .T. ) ;
#228 = ORIENTED_EDGE ( 'NONE', *, *, #293, .F. ) ;
#229 = ORIENTED_EDGE ( 'NONE', *, *, #284, .F. ) ;
#230 = ORIENTED_EDGE ( 'NONE', *, *, #294, .T. ) ;
#231 = ORIENTED_EDGE ( 'NONE', *, *, #288, .T. ) ;
#232 = ORIENTED_EDGE ( 'NONE', *, *, #290, .F. ) ;
#233 = ORIENTED_EDGE ( 'NONE', *, *, #287, .F. ) ;
#234 = ORIENTED_EDGE ( 'NONE', *, *, #292, .T. ) ;
#235 = ORIENTED_EDGE ( 'NONE', *, *, #297, .F. ) ;
#236 = ORIENTED_EDGE ( 'NONE', *, *, #291, .F. ) ;
#237 = ORIENTED_EDGE ( 'NONE', *, *, #303, .T. ) ;
#238 = ORIENTED_EDGE ( 'NONE', *, *, #288, .F. ) ;
#239 = ORIENTED_EDGE ( 'NONE', *, *, #296, .F. ) ;
#240 = CLOSED_SHELL ( 'NONE', ( #127, #128, #126, #129, #125, #2, #1, #3 ) ) ;
#241 = FACE_OUTER_BOUND ( 'NONE', #217, .T. ) ;
#242 = FACE_OUTER_BOUND ( 'NONE', #195, .T. ) ;
#243 = ORIENTED_EDGE ( 'NONE', *, *, #297, .T. ) ;
#244 = ORIENTED_EDGE ( 'NONE', *, *, #283, .F. ) ;
#245 = ORIENTED_EDGE ( 'NONE', *, *, #289, .T. ) ;
#246 = ORIENTED_EDGE ( 'NONE', *, *, #285, .T. ) ;
#247 = ORIENTED_EDGE ( 'NONE', *, *, #307, .F. ) ;
#248 = ORIENTED_EDGE ( 'NONE', *, *, #298, .T. ) ;
#249 = ORIENTED_EDGE ( 'NONE', *, *, #285, .F. ) ;
#250 = ORIENTED_EDGE ( 'NONE', *, *, #298, .F. ) ;
#251 = ORIENTED_EDGE ( 'NONE', *, *, #291, .T. ) ;
#252 = ORIENTED_EDGE ( 'NONE', *, *, #307, .T. ) ;
#253 = ORIENTED_EDGE ( 'NONE', *, *, #289, .F. ) ;
#254 = ORIENTED_EDGE ( 'NONE', *, *, #292, .F. ) ;
#255 = ORIENTED_EDGE ( 'NONE', *, *, #294, .F. ) ;
#256 = ORIENTED_EDGE ( 'NONE', *, *, #286, .F. ) ;
#257 = EDGE_LOOP ( 'NONE', ( #250, #249, #252, #251 ) ) ;
#258 = ORIENTED_EDGE ( 'NONE', *, *, #290, .T. ) ;
#259 = EDGE_LOOP ( 'NONE', ( #246, #210 ) ) ;
#260 = MANIFOLD_SOLID_BREP ( 'Cut-Extrude2', #240 ) ;
#261 = ADVANCED_BREP_SHAPE_REPRESENTATION ( 'BridgeBar', ( #260, #272 ), #163 ) ;
#262 = UNCERTAINTY_MEASURE_WITH_UNIT (LENGTH_MEASURE( 1.000000000000000100E-005 ), #27, 'distance_accuracy_value', 'NONE');
#263 = APPROVAL ( #94, 'UNSPECIFIED' ) ;
#264 = CC_DESIGN_PERSON_AND_ORGANIZATION_ASSIGNMENT ( #136, #58, ( #311 ) ) ;
#265 = CC_DESIGN_DATE_AND_TIME_ASSIGNMENT ( #215, #96, ( #267 ) ) ;
#266 = CC_DESIGN_APPROVAL ( #263, ( #267 ) ) ;
#267 = SECURITY_CLASSIFICATION ( '', '', #49 ) ;
#268 = CC_DESIGN_PERSON_AND_ORGANIZATION_ASSIGNMENT ( #135, #43, ( #267 ) ) ;
#269 = CC_DESIGN_SECURITY_CLASSIFICATION ( #267, ( #311 ) ) ;
#270 = PRODUCT_RELATED_PRODUCT_CATEGORY ( 'detail', '', ( #4 ) ) ;
#271 = CC_DESIGN_PERSON_AND_ORGANIZATION_ASSIGNMENT ( #160, #51, ( #4 ) ) ;
#272 = AXIS2_PLACEMENT_3D ( 'NONE', #9, #15, #8 ) ;
#273 = AXIS2_PLACEMENT_3D ( 'NONE', #40, #23, #22 ) ;
#274 = AXIS2_PLACEMENT_3D ( 'NONE', #102, #92, #91 ) ;
#275 = AXIS2_PLACEMENT_3D ( 'NONE', #98, #87, #85 ) ;
#276 = AXIS2_PLACEMENT_3D ( 'NONE', #82, #78, #77 ) ;
#277 = AXIS2_PLACEMENT_3D ( 'NONE', #75, #74, #71 ) ;
#278 = AXIS2_PLACEMENT_3D ( 'NONE', #120, #119, #123 ) ;
#279 = AXIS2_PLACEMENT_3D ( 'NONE', #86, #118, #117 ) ;
#280 = AXIS2_PLACEMENT_3D ( 'NONE', #24, #122, #121 ) ;
#281 = PRODUCT_DEFINITION ( 'UNKNOWN', '', #311, #131 ) ;
#282 = AXIS2_PLACEMENT_3D ( 'NONE', #105, #42, #41 ) ;
#283 = EDGE_CURVE ( 'NONE', #19, #21, #194, .T. ) ;
#284 = EDGE_CURVE ( 'NONE', #93, #36, #196, .T. ) ;
#285 = EDGE_CURVE ( 'NONE', #21, #19, #189, .T. ) ;
#286 = EDGE_CURVE ( 'NONE', #36, #18, #199, .T. ) ;
#287 = EDGE_CURVE ( 'NONE', #106, #81, #188, .T. ) ;
#288 = EDGE_CURVE ( 'NONE', #14, #34, #190, .T. ) ;
#289 = EDGE_CURVE ( 'NONE', #18, #34, #191, .T. ) ;
#290 = EDGE_CURVE ( 'NONE', #14, #106, #193, .T. ) ;
#291 = EDGE_CURVE ( 'NONE', #76, #124, #178, .T. ) ;
#292 = EDGE_CURVE ( 'NONE', #34, #81, #179, .T. ) ;
#293 = EDGE_CURVE ( 'NONE', #106, #93, #177, .T. ) ;
#294 = EDGE_CURVE ( 'NONE', #81, #36, #175, .T. ) ;
#295 = EDGE_CURVE ( 'NONE', #93, #101, #173, .T. ) ;
#296 = EDGE_CURVE ( 'NONE', #101, #14, #171, .T. ) ;
#297 = EDGE_CURVE ( 'NONE', #124, #76, #168, .T. ) ;
#298 = EDGE_CURVE ( 'NONE', #19, #124, #169, .T. ) ;
#299 = APPROVAL ( #59, 'UNSPECIFIED' ) ;
#300 = AXIS2_PLACEMENT_3D ( 'NONE', #90, #89, #95 ) ;
#301 = AXIS2_PLACEMENT_3D ( 'NONE', #83, #73, #72 ) ;
#302 = AXIS2_PLACEMENT_3D ( 'NONE', #68, #67, #66 ) ;
#303 = EDGE_CURVE ( 'NONE', #101, #18, #167, .T. ) ;
#304 = CC_DESIGN_APPROVAL ( #306, ( #311 ) ) ;
#305 = CC_DESIGN_APPROVAL ( #299, ( #281 ) ) ;
#306 = APPROVAL ( #64, 'UNSPECIFIED' ) ;
#307 = EDGE_CURVE ( 'NONE', #21, #76, #165, .T. ) ;
#308 = CC_DESIGN_PERSON_AND_ORGANIZATION_ASSIGNMENT ( #152, #55, ( #281 ) ) ;
#309 = CC_DESIGN_PERSON_AND_ORGANIZATION_ASSIGNMENT ( #137, #61, ( #311 ) ) ;
#310 = CC_DESIGN_DATE_AND_TIME_ASSIGNMENT ( #145, #57, ( #281 ) ) ;
#311 = PRODUCT_DEFINITION_FORMATION_WITH_SPECIFIED_SOURCE ( 'ANY', '', #4, .NOT_KNOWN. ) ;
ENDSEC;
END-ISO-10303-21;
