ISO-10303-21;
HEADER;
FILE_DESCRIPTION (( 'STEP AP203' ),
    '1' );
FILE_NAME ('SupportShaft.STEP',
    '2012-05-26T02:07:12',
    ( '' ),
    ( '' ),
    'SwSTEP 2.0',
    'SolidWorks 2010',
    '' );
FILE_SCHEMA (( 'CONFIG_CONTROL_DESIGN' ));
ENDSEC;

DATA;
#1 = VERTEX_POINT ( 'NONE', #33 ) ;
#2 = DIRECTION ( 'NONE',  ( 1.000000000000000000, 0.0000000000000000000, 0.0000000000000000000 ) ) ;
#3 = DIRECTION ( 'NONE',  ( 0.0000000000000000000, 0.0000000000000000000, 1.000000000000000000 ) ) ;
#4 = DIRECTION ( 'NONE',  ( -1.000000000000000000, 0.0000000000000000000, 0.0000000000000000000 ) ) ;
#5 = DIRECTION ( 'NONE',  ( -1.000000000000000000, 0.0000000000000000000, 0.0000000000000000000 ) ) ;
#6 = DIRECTION ( 'NONE',  ( 0.0000000000000000000, 0.0000000000000000000, 1.000000000000000000 ) ) ;
#7 = DIRECTION ( 'NONE',  ( 1.000000000000000000, 0.0000000000000000000, 0.0000000000000000000 ) ) ;
#8 = DIRECTION ( 'NONE',  ( -0.0000000000000000000, -0.0000000000000000000, -1.000000000000000000 ) ) ;
#9 = CARTESIAN_POINT ( 'NONE',  ( 0.0000000000000000000, 0.0000000000000000000, 300.0000000000000000 ) ) ;
#10 = DIRECTION ( 'NONE',  ( -0.0000000000000000000, -0.0000000000000000000, -1.000000000000000000 ) ) ;
#11 = DIRECTION ( 'NONE',  ( 0.0000000000000000000, 0.0000000000000000000, 1.000000000000000000 ) ) ;
#12 = DIRECTION ( 'NONE',  ( 1.000000000000000000, 0.0000000000000000000, -0.0000000000000000000 ) ) ;
#13 = DIRECTION ( 'NONE',  ( 0.0000000000000000000, 0.0000000000000000000, 1.000000000000000000 ) ) ;
#14 = PLANE ( 'NONE',  #87 ) ;
#15 = CARTESIAN_POINT ( 'NONE',  ( 0.0000000000000000000, 0.0000000000000000000, 0.0000000000000000000 ) ) ;
#16 = PLANE ( 'NONE',  #88 ) ;
#17 =( LENGTH_UNIT ( ) NAMED_UNIT ( * ) SI_UNIT ( .MILLI., .METRE. ) );
#18 = DIRECTION ( 'NONE',  ( 1.000000000000000000, 0.0000000000000000000, -0.0000000000000000000 ) ) ;
#19 = DIRECTION ( 'NONE',  ( 0.0000000000000000000, 0.0000000000000000000, 1.000000000000000000 ) ) ;
#20 = DIRECTION ( 'NONE',  ( 0.0000000000000000000, 0.0000000000000000000, 1.000000000000000000 ) ) ;
#21 =( NAMED_UNIT ( * ) PLANE_ANGLE_UNIT ( ) SI_UNIT ( $, .RADIAN. ) );
#22 = CARTESIAN_POINT ( 'NONE',  ( 0.0000000000000000000, 0.0000000000000000000, 300.0000000000000000 ) ) ;
#23 = DIRECTION ( 'NONE',  ( 1.000000000000000000, 0.0000000000000000000, 0.0000000000000000000 ) ) ;
#24 = CARTESIAN_POINT ( 'NONE',  ( 0.0000000000000000000, 0.0000000000000000000, 300.0000000000000000 ) ) ;
#25 = CARTESIAN_POINT ( 'NONE',  ( 0.0000000000000000000, 0.0000000000000000000, 0.0000000000000000000 ) ) ;
#26 = DIRECTION ( 'NONE',  ( 1.000000000000000000, 0.0000000000000000000, 0.0000000000000000000 ) ) ;
#27 = DIRECTION ( 'NONE',  ( -0.0000000000000000000, -0.0000000000000000000, -1.000000000000000000 ) ) ;
#28 = CARTESIAN_POINT ( 'NONE',  ( 0.0000000000000000000, 0.0000000000000000000, 0.0000000000000000000 ) ) ;
#29 = CARTESIAN_POINT ( 'NONE',  ( 15.90000000000000000, 1.947188410644291800E-015, 300.0000000000000000 ) ) ;
#30 = DIRECTION ( 'NONE',  ( -0.0000000000000000000, -0.0000000000000000000, -1.000000000000000000 ) ) ;
#31 = CARTESIAN_POINT ( 'NONE',  ( -15.90000000000000000, 0.0000000000000000000, 300.0000000000000000 ) ) ;
#32 = CARTESIAN_POINT ( 'NONE',  ( 15.90000000000000000, 1.947188410644291800E-015, 300.0000000000000000 ) ) ;
#33 = CARTESIAN_POINT ( 'NONE',  ( -15.90000000000000000, 0.0000000000000000000, 300.0000000000000000 ) ) ;
#34 = CARTESIAN_POINT ( 'NONE',  ( 15.90000000000000000, 1.947188410644291800E-015, 0.0000000000000000000 ) ) ;
#35 = VERTEX_POINT ( 'NONE', #34 ) ;
#36 = CARTESIAN_POINT ( 'NONE',  ( 0.0000000000000000000, 0.0000000000000000000, 300.0000000000000000 ) ) ;
#37 = DIRECTION ( 'NONE',  ( 0.0000000000000000000, 0.0000000000000000000, 1.000000000000000000 ) ) ;
#38 = VERTEX_POINT ( 'NONE', #40 ) ;
#39 = VERTEX_POINT ( 'NONE', #32 ) ;
#40 = CARTESIAN_POINT ( 'NONE',  ( -15.90000000000000000, 0.0000000000000000000, 0.0000000000000000000 ) ) ;
#41 = CARTESIAN_POINT ( 'NONE',  ( 0.0000000000000000000, 0.0000000000000000000, 0.0000000000000000000 ) ) ;
#42 = APPLICATION_PROTOCOL_DEFINITION ( 'international standard', 'config_control_design', 1994, #43 ) ;
#43 = APPLICATION_CONTEXT ( 'configuration controlled 3d designs of mechanical parts and assemblies' ) ;
#44 =( NAMED_UNIT ( * ) SI_UNIT ( $, .STERADIAN. ) SOLID_ANGLE_UNIT ( ) );
#45 = DIRECTION ( 'NONE',  ( 1.000000000000000000, 0.0000000000000000000, 0.0000000000000000000 ) ) ;
#46 = CARTESIAN_POINT ( 'NONE',  ( 0.0000000000000000000, 0.0000000000000000000, 300.0000000000000000 ) ) ;
#47 = MECHANICAL_CONTEXT ( 'NONE', #43, 'mechanical' ) ;
#48 = PERSON_AND_ORGANIZATION_ROLE ( 'design_owner' ) ;
#49 = APPLICATION_CONTEXT ( 'configuration controlled 3d designs of mechanical parts and assemblies' ) ;
#50 = APPLICATION_PROTOCOL_DEFINITION ( 'international standard', 'config_control_design', 1994, #49 ) ;
#51 = APPROVAL_STATUS ( 'not_yet_approved' ) ;
#52 = APPROVAL_ROLE ( '' ) ;
#53 = PERSON_AND_ORGANIZATION_ROLE ( 'creator' ) ;
#54 = DATE_TIME_ROLE ( 'creation_date' ) ;
#55 = APPROVAL_STATUS ( 'not_yet_approved' ) ;
#56 = APPROVAL_ROLE ( '' ) ;
#57 = PERSON_AND_ORGANIZATION_ROLE ( 'creator' ) ;
#58 = PERSON_AND_ORGANIZATION_ROLE ( 'design_supplier' ) ;
#59 = SECURITY_CLASSIFICATION_LEVEL ( 'unclassified' ) ;
#60 = PERSON_AND_ORGANIZATION_ROLE ( 'classification_officer' ) ;
#61 = DATE_TIME_ROLE ( 'classification_date' ) ;
#62 = APPROVAL_STATUS ( 'not_yet_approved' ) ;
#63 = APPROVAL_ROLE ( '' ) ;
#64 = EDGE_CURVE ( 'NONE', #1, #38, #118, .T. ) ;
#65 = CC_DESIGN_DATE_AND_TIME_ASSIGNMENT ( #158, #61, ( #90 ) ) ;
#66 = EDGE_CURVE ( 'NONE', #39, #35, #109, .T. ) ;
#67 = CC_DESIGN_PERSON_AND_ORGANIZATION_ASSIGNMENT ( #131, #48, ( #96 ) ) ;
#68 = EDGE_CURVE ( 'NONE', #39, #1, #112, .T. ) ;
#69 = AXIS2_PLACEMENT_3D ( 'NONE', #25, #3, #23 ) ;
#70 = EDGE_CURVE ( 'NONE', #38, #35, #148, .T. ) ;
#71 = PRODUCT_DEFINITION ( 'UNKNOWN', '', #78, #94 ) ;
#72 = EDGE_CURVE ( 'NONE', #35, #38, #147, .T. ) ;
#73 = AXIS2_PLACEMENT_3D ( 'NONE', #36, #37, #26 ) ;
#74 = EDGE_CURVE ( 'NONE', #1, #39, #150, .T. ) ;
#75 = AXIS2_PLACEMENT_3D ( 'NONE', #28, #11, #2 ) ;
#76 = AXIS2_PLACEMENT_3D ( 'NONE', #22, #8, #5 ) ;
#77 = AXIS2_PLACEMENT_3D ( 'NONE', #46, #10, #4 ) ;
#78 = PRODUCT_DEFINITION_FORMATION_WITH_SPECIFIED_SOURCE ( 'ANY', '', #96, .NOT_KNOWN. ) ;
#79 = CC_DESIGN_APPROVAL ( #81, ( #78 ) ) ;
#80 = CC_DESIGN_PERSON_AND_ORGANIZATION_ASSIGNMENT ( #162, #57, ( #78 ) ) ;
#81 = APPROVAL ( #55, 'UNSPECIFIED' ) ;
#82 = CC_DESIGN_PERSON_AND_ORGANIZATION_ASSIGNMENT ( #154, #60, ( #90 ) ) ;
#83 = CC_DESIGN_PERSON_AND_ORGANIZATION_ASSIGNMENT ( #126, #53, ( #71 ) ) ;
#84 = CC_DESIGN_DATE_AND_TIME_ASSIGNMENT ( #128, #54, ( #71 ) ) ;
#85 = CC_DESIGN_APPROVAL ( #86, ( #71 ) ) ;
#86 = APPROVAL ( #51, 'UNSPECIFIED' ) ;
#87 = AXIS2_PLACEMENT_3D ( 'NONE', #15, #19, #18 ) ;
#88 = AXIS2_PLACEMENT_3D ( 'NONE', #9, #13, #12 ) ;
#89 = APPROVAL ( #62, 'UNSPECIFIED' ) ;
#90 = SECURITY_CLASSIFICATION ( '', '', #59 ) ;
#91 = CC_DESIGN_PERSON_AND_ORGANIZATION_ASSIGNMENT ( #159, #58, ( #78 ) ) ;
#92 = AXIS2_PLACEMENT_3D ( 'NONE', #24, #6, #7 ) ;
#93 = AXIS2_PLACEMENT_3D ( 'NONE', #41, #20, #45 ) ;
#94 = DESIGN_CONTEXT ( 'detailed design', #49, 'design' ) ;
#95 = PRODUCT_DEFINITION_SHAPE ( 'NONE', 'NONE',  #71 ) ;
#96 = PRODUCT ( 'SupportShaft', 'SupportShaft', '', ( #47 ) ) ;
#97 = PERSON ( 'UNSPECIFIED', 'UNSPECIFIED', 'UNSPECIFIED', ('UNSPECIFIED'), ('UNSPECIFIED'), ('UNSPECIFIED') ) ;
#98 = MANIFOLD_SOLID_BREP ( 'Boss-Extrude1', #119 ) ;
#99 = UNCERTAINTY_MEASURE_WITH_UNIT (LENGTH_MEASURE( 1.000000000000000100E-005 ), #17, 'distance_accuracy_value', 'NONE');
#100 = ADVANCED_BREP_SHAPE_REPRESENTATION ( 'SupportShaft', ( #98, #93 ), #133 ) ;
#101 = CC_DESIGN_SECURITY_CLASSIFICATION ( #90, ( #78 ) ) ;
#102 = CC_DESIGN_APPROVAL ( #89, ( #90 ) ) ;
#103 = PRODUCT_RELATED_PRODUCT_CATEGORY ( 'detail', '', ( #96 ) ) ;
#104 = ADVANCED_FACE ( 'NONE', ( #113 ), #110, .T. ) ;
#105 = ADVANCED_FACE ( 'NONE', ( #114 ), #151, .T. ) ;
#106 = ADVANCED_FACE ( 'NONE', ( #152 ), #16, .T. ) ;
#107 = ADVANCED_FACE ( 'NONE', ( #108 ), #14, .F. ) ;
#108 = FACE_OUTER_BOUND ( 'NONE', #137, .T. ) ;
#109 = LINE ( 'NONE', #29, #111 ) ;
#110 = CYLINDRICAL_SURFACE ( 'NONE', #76, 15.90000000000000000 ) ;
#111 = VECTOR ( 'NONE', #27, 1000.000000000000000 ) ;
#112 = CIRCLE ( 'NONE', #73, 15.90000000000000000 ) ;
#113 = FACE_OUTER_BOUND ( 'NONE', #139, .T. ) ;
#114 = FACE_OUTER_BOUND ( 'NONE', #141, .T. ) ;
#115 = ORIENTED_EDGE ( 'NONE', *, *, #70, .F. ) ;
#116 = EDGE_LOOP ( 'NONE', ( #143, #117 ) ) ;
#117 = ORIENTED_EDGE ( 'NONE', *, *, #68, .T. ) ;
#118 = LINE ( 'NONE', #31, #144 ) ;
#119 = CLOSED_SHELL ( 'NONE', ( #104, #105, #106, #107 ) ) ;
#120 = ORIENTED_EDGE ( 'NONE', *, *, #74, .F. ) ;
#121 = ORIENTED_EDGE ( 'NONE', *, *, #70, .T. ) ;
#122 = CALENDAR_DATE ( 2012, 25, 5 ) ;
#123 = DATE_AND_TIME ( #122, #125 ) ;
#124 = APPROVAL_DATE_TIME ( #123, #86 ) ;
#125 = LOCAL_TIME ( 21, 7, 12.00000000000000000, #127 ) ;
#126 = PERSON_AND_ORGANIZATION ( #97, #130 ) ;
#127 = COORDINATED_UNIVERSAL_TIME_OFFSET ( 6, 0, .BEHIND. ) ;
#128 = DATE_AND_TIME ( #161, #167 ) ;
#129 = PERSON_AND_ORGANIZATION ( #97, #130 ) ;
#130 = ORGANIZATION ( 'UNSPECIFIED', 'UNSPECIFIED', '' ) ;
#131 = PERSON_AND_ORGANIZATION ( #97, #130 ) ;
#132 = APPROVAL_PERSON_ORGANIZATION ( #129, #86, #52 ) ;
#133 =( GEOMETRIC_REPRESENTATION_CONTEXT ( 3 ) GLOBAL_UNCERTAINTY_ASSIGNED_CONTEXT ( ( #99 ) ) GLOBAL_UNIT_ASSIGNED_CONTEXT ( ( #17, #21, #44 ) ) REPRESENTATION_CONTEXT ( 'NONE', 'WORKASPACE' ) );
#134 = SHAPE_DEFINITION_REPRESENTATION ( #95, #100 ) ;
#135 = ORIENTED_EDGE ( 'NONE', *, *, #68, .F. ) ;
#136 = ORIENTED_EDGE ( 'NONE', *, *, #64, .T. ) ;
#137 = EDGE_LOOP ( 'NONE', ( #115, #146 ) ) ;
#138 = ORIENTED_EDGE ( 'NONE', *, *, #64, .F. ) ;
#139 = EDGE_LOOP ( 'NONE', ( #135, #149, #142, #138 ) ) ;
#140 = LOCAL_TIME ( 21, 7, 12.00000000000000000, #157 ) ;
#141 = EDGE_LOOP ( 'NONE', ( #145, #120, #136, #121 ) ) ;
#142 = ORIENTED_EDGE ( 'NONE', *, *, #72, .T. ) ;
#143 = ORIENTED_EDGE ( 'NONE', *, *, #74, .T. ) ;
#144 = VECTOR ( 'NONE', #30, 1000.000000000000000 ) ;
#145 = ORIENTED_EDGE ( 'NONE', *, *, #66, .F. ) ;
#146 = ORIENTED_EDGE ( 'NONE', *, *, #72, .F. ) ;
#147 = CIRCLE ( 'NONE', #75, 15.90000000000000000 ) ;
#148 = CIRCLE ( 'NONE', #69, 15.90000000000000000 ) ;
#149 = ORIENTED_EDGE ( 'NONE', *, *, #66, .T. ) ;
#150 = CIRCLE ( 'NONE', #92, 15.90000000000000000 ) ;
#151 = CYLINDRICAL_SURFACE ( 'NONE', #77, 15.90000000000000000 ) ;
#152 = FACE_OUTER_BOUND ( 'NONE', #116, .T. ) ;
#153 = CALENDAR_DATE ( 2012, 25, 5 ) ;
#154 = PERSON_AND_ORGANIZATION ( #97, #130 ) ;
#155 = DATE_AND_TIME ( #156, #163 ) ;
#156 = CALENDAR_DATE ( 2012, 25, 5 ) ;
#157 = COORDINATED_UNIVERSAL_TIME_OFFSET ( 6, 0, .BEHIND. ) ;
#158 = DATE_AND_TIME ( #153, #140 ) ;
#159 = PERSON_AND_ORGANIZATION ( #97, #130 ) ;
#160 = COORDINATED_UNIVERSAL_TIME_OFFSET ( 6, 0, .BEHIND. ) ;
#161 = CALENDAR_DATE ( 2012, 25, 5 ) ;
#162 = PERSON_AND_ORGANIZATION ( #97, #130 ) ;
#163 = LOCAL_TIME ( 21, 7, 12.00000000000000000, #160 ) ;
#164 = APPROVAL_DATE_TIME ( #155, #81 ) ;
#165 = PERSON_AND_ORGANIZATION ( #97, #130 ) ;
#166 = COORDINATED_UNIVERSAL_TIME_OFFSET ( 6, 0, .BEHIND. ) ;
#167 = LOCAL_TIME ( 21, 7, 12.00000000000000000, #166 ) ;
#168 = APPROVAL_PERSON_ORGANIZATION ( #165, #81, #56 ) ;
#169 = APPROVAL_PERSON_ORGANIZATION ( #175, #89, #63 ) ;
#170 = COORDINATED_UNIVERSAL_TIME_OFFSET ( 6, 0, .BEHIND. ) ;
#171 = LOCAL_TIME ( 21, 7, 12.00000000000000000, #170 ) ;
#172 = CALENDAR_DATE ( 2012, 25, 5 ) ;
#173 = DATE_AND_TIME ( #172, #171 ) ;
#174 = APPROVAL_DATE_TIME ( #173, #89 ) ;
#175 = PERSON_AND_ORGANIZATION ( #97, #130 ) ;
ENDSEC;
END-ISO-10303-21;
