 0
SECTION
 2
ENTITIES
  0
POLYLINE
 8
Layer0
 66
     1
70
    8
 10
0.0
 20
 0.0
 30
0.0
  0
VERTEX
  8
MY3DLAYER
10
-81.8229493630411
20
213.929182738874
30
0.0
 70
     32
  0
VERTEX
  8
MY3DLAYER
10
-81.8421160857535
20
213.783597026004
30
0.0
 70
     32
  0
VERTEX
  8
MY3DLAYER
10
-81.8983100734124
20
213.647932738874
30
0.0
 70
     32
  0
VERTEX
  8
MY3DLAYER
10
-81.9877017986237
20
213.531435174456
30
0.0
 70
     32
  0
VERTEX
  8
MY3DLAYER
10
-82.1041993630411
20
213.442043449245
30
0.0
 70
     32
  0
VERTEX
  8
MY3DLAYER
10
-82.2398636501709
20
213.385849461586
30
0.0
 70
     32
  0
VERTEX
  8
MY3DLAYER
10
-82.3854493630411
20
213.366682738874
30
0.0
 70
     32
  0
VERTEX
  8
MY3DLAYER
10
-82.5310350759113
20
213.385849461586
30
0.0
 70
     32
  0
VERTEX
  8
MY3DLAYER
10
-82.6666993630411
20
213.442043449245
30
0.0
 70
     32
  0
VERTEX
  8
MY3DLAYER
10
-82.7831969274585
20
213.531435174456
30
0.0
 70
     32
  0
VERTEX
  8
MY3DLAYER
10
-82.8725886526699
20
213.647932738874
30
0.0
 70
     32
  0
VERTEX
  8
MY3DLAYER
10
-82.9287826403287
20
213.783597026004
30
0.0
 70
     32
  0
VERTEX
  8
MY3DLAYER
10
-82.9479493630411
20
213.929182738874
30
0.0
 70
     32
  0
VERTEX
  8
MY3DLAYER
10
-82.9287826403287
20
214.074768451744
30
0.0
 70
     32
  0
VERTEX
  8
MY3DLAYER
10
-82.8725886526698
20
214.210432738874
30
0.0
 70
     32
  0
VERTEX
  8
MY3DLAYER
10
-82.7831969274585
20
214.326930303291
30
0.0
 70
     32
  0
VERTEX
  8
MY3DLAYER
10
-82.6666993630411
20
214.416322028502
30
0.0
 70
     32
  0
VERTEX
  8
MY3DLAYER
10
-82.5310350759113
20
214.472516016161
30
0.0
 70
     32
  0
VERTEX
  8
MY3DLAYER
10
-82.3854493630411
20
214.491682738874
30
0.0
 70
     32
  0
VERTEX
  8
MY3DLAYER
10
-82.2398636501709
20
214.472516016161
30
0.0
 70
     32
  0
VERTEX
  8
MY3DLAYER
10
-82.1041993630411
20
214.416322028502
30
0.0
 70
     32
  0
VERTEX
  8
MY3DLAYER
10
-81.9877017986237
20
214.326930303291
30
0.0
 70
     32
  0
VERTEX
  8
MY3DLAYER
10
-81.8983100734124
20
214.210432738874
30
0.0
 70
     32
  0
VERTEX
  8
MY3DLAYER
10
-81.8421160857535
20
214.074768451744
30
0.0
 70
     32
  0
VERTEX
  8
MY3DLAYER
10
-81.8229493630411
20
213.929182738874
30
0.0
 70
     32
  0
SEQEND
  0
POLYLINE
 8
Layer0
 66
     1
70
    8
 10
0.0
 20
 0.0
 30
0.0
  0
VERTEX
  8
MY3DLAYER
10
-69.8229493630411
20
213.929182738874
30
0.0
 70
     32
  0
VERTEX
  8
MY3DLAYER
10
-69.8421160857535
20
213.783597026004
30
0.0
 70
     32
  0
VERTEX
  8
MY3DLAYER
10
-69.8983100734124
20
213.647932738874
30
0.0
 70
     32
  0
VERTEX
  8
MY3DLAYER
10
-69.9877017986237
20
213.531435174456
30
0.0
 70
     32
  0
VERTEX
  8
MY3DLAYER
10
-70.1041993630411
20
213.442043449245
30
0.0
 70
     32
  0
VERTEX
  8
MY3DLAYER
10
-70.2398636501709
20
213.385849461586
30
0.0
 70
     32
  0
VERTEX
  8
MY3DLAYER
10
-70.3854493630411
20
213.366682738874
30
0.0
 70
     32
  0
VERTEX
  8
MY3DLAYER
10
-70.5310350759113
20
213.385849461586
30
0.0
 70
     32
  0
VERTEX
  8
MY3DLAYER
10
-70.6666993630411
20
213.442043449245
30
0.0
 70
     32
  0
VERTEX
  8
MY3DLAYER
10
-70.7831969274585
20
213.531435174456
30
0.0
 70
     32
  0
VERTEX
  8
MY3DLAYER
10
-70.8725886526699
20
213.647932738874
30
0.0
 70
     32
  0
VERTEX
  8
MY3DLAYER
10
-70.9287826403287
20
213.783597026004
30
0.0
 70
     32
  0
VERTEX
  8
MY3DLAYER
10
-70.9479493630411
20
213.929182738874
30
0.0
 70
     32
  0
VERTEX
  8
MY3DLAYER
10
-70.9287826403287
20
214.074768451744
30
0.0
 70
     32
  0
VERTEX
  8
MY3DLAYER
10
-70.8725886526698
20
214.210432738874
30
0.0
 70
     32
  0
VERTEX
  8
MY3DLAYER
10
-70.7831969274585
20
214.326930303291
30
0.0
 70
     32
  0
VERTEX
  8
MY3DLAYER
10
-70.6666993630411
20
214.416322028502
30
0.0
 70
     32
  0
VERTEX
  8
MY3DLAYER
10
-70.5310350759113
20
214.472516016161
30
0.0
 70
     32
  0
VERTEX
  8
MY3DLAYER
10
-70.3854493630411
20
214.491682738874
30
0.0
 70
     32
  0
VERTEX
  8
MY3DLAYER
10
-70.2398636501709
20
214.472516016161
30
0.0
 70
     32
  0
VERTEX
  8
MY3DLAYER
10
-70.1041993630411
20
214.416322028502
30
0.0
 70
     32
  0
VERTEX
  8
MY3DLAYER
10
-69.9877017986237
20
214.326930303291
30
0.0
 70
     32
  0
VERTEX
  8
MY3DLAYER
10
-69.8983100734124
20
214.210432738874
30
0.0
 70
     32
  0
VERTEX
  8
MY3DLAYER
10
-69.8421160857535
20
214.074768451744
30
0.0
 70
     32
  0
VERTEX
  8
MY3DLAYER
10
-69.8229493630411
20
213.929182738874
30
0.0
 70
     32
  0
SEQEND
  0
POLYLINE
 8
Layer0
 66
     1
70
    8
 10
0.0
 20
 0.0
 30
0.0
  0
VERTEX
  8
MY3DLAYER
10
-121.822949363041
20
213.929182738874
30
0.0
 70
     32
  0
VERTEX
  8
MY3DLAYER
10
-121.842116085754
20
213.783597026004
30
0.0
 70
     32
  0
VERTEX
  8
MY3DLAYER
10
-121.898310073412
20
213.647932738874
30
0.0
 70
     32
  0
VERTEX
  8
MY3DLAYER
10
-121.987701798624
20
213.531435174456
30
0.0
 70
     32
  0
VERTEX
  8
MY3DLAYER
10
-122.104199363041
20
213.442043449245
30
0.0
 70
     32
  0
VERTEX
  8
MY3DLAYER
10
-122.239863650171
20
213.385849461586
30
0.0
 70
     32
  0
VERTEX
  8
MY3DLAYER
10
-122.385449363041
20
213.366682738874
30
0.0
 70
     32
  0
VERTEX
  8
MY3DLAYER
10
-122.531035075911
20
213.385849461586
30
0.0
 70
     32
  0
VERTEX
  8
MY3DLAYER
10
-122.666699363041
20
213.442043449245
30
0.0
 70
     32
  0
VERTEX
  8
MY3DLAYER
10
-122.783196927459
20
213.531435174456
30
0.0
 70
     32
  0
VERTEX
  8
MY3DLAYER
10
-122.87258865267
20
213.647932738874
30
0.0
 70
     32
  0
VERTEX
  8
MY3DLAYER
10
-122.928782640329
20
213.783597026004
30
0.0
 70
     32
  0
VERTEX
  8
MY3DLAYER
10
-122.947949363041
20
213.929182738874
30
0.0
 70
     32
  0
VERTEX
  8
MY3DLAYER
10
-122.928782640329
20
214.074768451744
30
0.0
 70
     32
  0
VERTEX
  8
MY3DLAYER
10
-122.87258865267
20
214.210432738874
30
0.0
 70
     32
  0
VERTEX
  8
MY3DLAYER
10
-122.783196927459
20
214.326930303291
30
0.0
 70
     32
  0
VERTEX
  8
MY3DLAYER
10
-122.666699363041
20
214.416322028502
30
0.0
 70
     32
  0
VERTEX
  8
MY3DLAYER
10
-122.531035075911
20
214.472516016161
30
0.0
 70
     32
  0
VERTEX
  8
MY3DLAYER
10
-122.385449363041
20
214.491682738874
30
0.0
 70
     32
  0
VERTEX
  8
MY3DLAYER
10
-122.239863650171
20
214.472516016161
30
0.0
 70
     32
  0
VERTEX
  8
MY3DLAYER
10
-122.104199363041
20
214.416322028502
30
0.0
 70
     32
  0
VERTEX
  8
MY3DLAYER
10
-121.987701798624
20
214.326930303291
30
0.0
 70
     32
  0
VERTEX
  8
MY3DLAYER
10
-121.898310073412
20
214.210432738874
30
0.0
 70
     32
  0
VERTEX
  8
MY3DLAYER
10
-121.842116085754
20
214.074768451744
30
0.0
 70
     32
  0
VERTEX
  8
MY3DLAYER
10
-121.822949363041
20
213.929182738874
30
0.0
 70
     32
  0
SEQEND
  0
POLYLINE
 8
Layer0
 66
     1
70
    8
 10
0.0
 20
 0.0
 30
0.0
  0
VERTEX
  8
MY3DLAYER
10
-101.822949363041
20
213.929182738874
30
0.0
 70
     32
  0
VERTEX
  8
MY3DLAYER
10
-101.842116085754
20
213.783597026004
30
0.0
 70
     32
  0
VERTEX
  8
MY3DLAYER
10
-101.898310073412
20
213.647932738874
30
0.0
 70
     32
  0
VERTEX
  8
MY3DLAYER
10
-101.987701798624
20
213.531435174456
30
0.0
 70
     32
  0
VERTEX
  8
MY3DLAYER
10
-102.104199363041
20
213.442043449245
30
0.0
 70
     32
  0
VERTEX
  8
MY3DLAYER
10
-102.239863650171
20
213.385849461586
30
0.0
 70
     32
  0
VERTEX
  8
MY3DLAYER
10
-102.385449363041
20
213.366682738874
30
0.0
 70
     32
  0
VERTEX
  8
MY3DLAYER
10
-102.531035075911
20
213.385849461586
30
0.0
 70
     32
  0
VERTEX
  8
MY3DLAYER
10
-102.666699363041
20
213.442043449245
30
0.0
 70
     32
  0
VERTEX
  8
MY3DLAYER
10
-102.783196927459
20
213.531435174456
30
0.0
 70
     32
  0
VERTEX
  8
MY3DLAYER
10
-102.87258865267
20
213.647932738874
30
0.0
 70
     32
  0
VERTEX
  8
MY3DLAYER
10
-102.928782640329
20
213.783597026004
30
0.0
 70
     32
  0
VERTEX
  8
MY3DLAYER
10
-102.947949363041
20
213.929182738874
30
0.0
 70
     32
  0
VERTEX
  8
MY3DLAYER
10
-102.928782640329
20
214.074768451744
30
0.0
 70
     32
  0
VERTEX
  8
MY3DLAYER
10
-102.87258865267
20
214.210432738874
30
0.0
 70
     32
  0
VERTEX
  8
MY3DLAYER
10
-102.783196927459
20
214.326930303291
30
0.0
 70
     32
  0
VERTEX
  8
MY3DLAYER
10
-102.666699363041
20
214.416322028502
30
0.0
 70
     32
  0
VERTEX
  8
MY3DLAYER
10
-102.531035075911
20
214.472516016161
30
0.0
 70
     32
  0
VERTEX
  8
MY3DLAYER
10
-102.385449363041
20
214.491682738874
30
0.0
 70
     32
  0
VERTEX
  8
MY3DLAYER
10
-102.239863650171
20
214.472516016161
30
0.0
 70
     32
  0
VERTEX
  8
MY3DLAYER
10
-102.104199363041
20
214.416322028502
30
0.0
 70
     32
  0
VERTEX
  8
MY3DLAYER
10
-101.987701798624
20
214.326930303291
30
0.0
 70
     32
  0
VERTEX
  8
MY3DLAYER
10
-101.898310073412
20
214.210432738874
30
0.0
 70
     32
  0
VERTEX
  8
MY3DLAYER
10
-101.842116085754
20
214.074768451744
30
0.0
 70
     32
  0
VERTEX
  8
MY3DLAYER
10
-101.822949363041
20
213.929182738874
30
0.0
 70
     32
  0
SEQEND
  0
POLYLINE
 8
Layer0
 66
     1
70
    8
 10
0.0
 20
 0.0
 30
0.0
  0
VERTEX
  8
MY3DLAYER
10
-125.822949363041
20
213.929182738874
30
0.0
 70
     32
  0
VERTEX
  8
MY3DLAYER
10
-125.842116085754
20
213.783597026004
30
0.0
 70
     32
  0
VERTEX
  8
MY3DLAYER
10
-125.898310073412
20
213.647932738874
30
0.0
 70
     32
  0
VERTEX
  8
MY3DLAYER
10
-125.987701798624
20
213.531435174456
30
0.0
 70
     32
  0
VERTEX
  8
MY3DLAYER
10
-126.104199363041
20
213.442043449245
30
0.0
 70
     32
  0
VERTEX
  8
MY3DLAYER
10
-126.239863650171
20
213.385849461586
30
0.0
 70
     32
  0
VERTEX
  8
MY3DLAYER
10
-126.385449363041
20
213.366682738874
30
0.0
 70
     32
  0
VERTEX
  8
MY3DLAYER
10
-126.531035075911
20
213.385849461586
30
0.0
 70
     32
  0
VERTEX
  8
MY3DLAYER
10
-126.666699363041
20
213.442043449245
30
0.0
 70
     32
  0
VERTEX
  8
MY3DLAYER
10
-126.783196927459
20
213.531435174456
30
0.0
 70
     32
  0
VERTEX
  8
MY3DLAYER
10
-126.87258865267
20
213.647932738874
30
0.0
 70
     32
  0
VERTEX
  8
MY3DLAYER
10
-126.928782640329
20
213.783597026004
30
0.0
 70
     32
  0
VERTEX
  8
MY3DLAYER
10
-126.947949363041
20
213.929182738874
30
0.0
 70
     32
  0
VERTEX
  8
MY3DLAYER
10
-126.928782640329
20
214.074768451744
30
0.0
 70
     32
  0
VERTEX
  8
MY3DLAYER
10
-126.87258865267
20
214.210432738874
30
0.0
 70
     32
  0
VERTEX
  8
MY3DLAYER
10
-126.783196927459
20
214.326930303291
30
0.0
 70
     32
  0
VERTEX
  8
MY3DLAYER
10
-126.666699363041
20
214.416322028502
30
0.0
 70
     32
  0
VERTEX
  8
MY3DLAYER
10
-126.531035075911
20
214.472516016161
30
0.0
 70
     32
  0
VERTEX
  8
MY3DLAYER
10
-126.385449363041
20
214.491682738874
30
0.0
 70
     32
  0
VERTEX
  8
MY3DLAYER
10
-126.239863650171
20
214.472516016161
30
0.0
 70
     32
  0
VERTEX
  8
MY3DLAYER
10
-126.104199363041
20
214.416322028502
30
0.0
 70
     32
  0
VERTEX
  8
MY3DLAYER
10
-125.987701798624
20
214.326930303291
30
0.0
 70
     32
  0
VERTEX
  8
MY3DLAYER
10
-125.898310073412
20
214.210432738874
30
0.0
 70
     32
  0
VERTEX
  8
MY3DLAYER
10
-125.842116085754
20
214.074768451744
30
0.0
 70
     32
  0
VERTEX
  8
MY3DLAYER
10
-125.822949363041
20
213.929182738874
30
0.0
 70
     32
  0
SEQEND
  0
POLYLINE
 8
Layer0
 66
     1
70
    8
 10
0.0
 20
 0.0
 30
0.0
  0
VERTEX
  8
MY3DLAYER
10
-109.822949363041
20
213.929182738874
30
0.0
 70
     32
  0
VERTEX
  8
MY3DLAYER
10
-109.842116085754
20
213.783597026004
30
0.0
 70
     32
  0
VERTEX
  8
MY3DLAYER
10
-109.898310073412
20
213.647932738874
30
0.0
 70
     32
  0
VERTEX
  8
MY3DLAYER
10
-109.987701798624
20
213.531435174456
30
0.0
 70
     32
  0
VERTEX
  8
MY3DLAYER
10
-110.104199363041
20
213.442043449245
30
0.0
 70
     32
  0
VERTEX
  8
MY3DLAYER
10
-110.239863650171
20
213.385849461586
30
0.0
 70
     32
  0
VERTEX
  8
MY3DLAYER
10
-110.385449363041
20
213.366682738874
30
0.0
 70
     32
  0
VERTEX
  8
MY3DLAYER
10
-110.531035075911
20
213.385849461586
30
0.0
 70
     32
  0
VERTEX
  8
MY3DLAYER
10
-110.666699363041
20
213.442043449245
30
0.0
 70
     32
  0
VERTEX
  8
MY3DLAYER
10
-110.783196927459
20
213.531435174456
30
0.0
 70
     32
  0
VERTEX
  8
MY3DLAYER
10
-110.87258865267
20
213.647932738874
30
0.0
 70
     32
  0
VERTEX
  8
MY3DLAYER
10
-110.928782640329
20
213.783597026004
30
0.0
 70
     32
  0
VERTEX
  8
MY3DLAYER
10
-110.947949363041
20
213.929182738874
30
0.0
 70
     32
  0
VERTEX
  8
MY3DLAYER
10
-110.928782640329
20
214.074768451744
30
0.0
 70
     32
  0
VERTEX
  8
MY3DLAYER
10
-110.87258865267
20
214.210432738874
30
0.0
 70
     32
  0
VERTEX
  8
MY3DLAYER
10
-110.783196927459
20
214.326930303291
30
0.0
 70
     32
  0
VERTEX
  8
MY3DLAYER
10
-110.666699363041
20
214.416322028502
30
0.0
 70
     32
  0
VERTEX
  8
MY3DLAYER
10
-110.531035075911
20
214.472516016161
30
0.0
 70
     32
  0
VERTEX
  8
MY3DLAYER
10
-110.385449363041
20
214.491682738874
30
0.0
 70
     32
  0
VERTEX
  8
MY3DLAYER
10
-110.239863650171
20
214.472516016161
30
0.0
 70
     32
  0
VERTEX
  8
MY3DLAYER
10
-110.104199363041
20
214.416322028502
30
0.0
 70
     32
  0
VERTEX
  8
MY3DLAYER
10
-109.987701798624
20
214.326930303291
30
0.0
 70
     32
  0
VERTEX
  8
MY3DLAYER
10
-109.898310073412
20
214.210432738874
30
0.0
 70
     32
  0
VERTEX
  8
MY3DLAYER
10
-109.842116085754
20
214.074768451744
30
0.0
 70
     32
  0
VERTEX
  8
MY3DLAYER
10
-109.822949363041
20
213.929182738874
30
0.0
 70
     32
  0
SEQEND
  0
POLYLINE
 8
Layer0
 66
     1
70
    8
 10
0.0
 20
 0.0
 30
0.0
  0
VERTEX
  8
MY3DLAYER
10
-165.822949363041
20
213.929182738874
30
0.0
 70
     32
  0
VERTEX
  8
MY3DLAYER
10
-165.842116085754
20
213.783597026004
30
0.0
 70
     32
  0
VERTEX
  8
MY3DLAYER
10
-165.898310073412
20
213.647932738874
30
0.0
 70
     32
  0
VERTEX
  8
MY3DLAYER
10
-165.987701798624
20
213.531435174456
30
0.0
 70
     32
  0
VERTEX
  8
MY3DLAYER
10
-166.104199363041
20
213.442043449245
30
0.0
 70
     32
  0
VERTEX
  8
MY3DLAYER
10
-166.239863650171
20
213.385849461586
30
0.0
 70
     32
  0
VERTEX
  8
MY3DLAYER
10
-166.385449363041
20
213.366682738874
30
0.0
 70
     32
  0
VERTEX
  8
MY3DLAYER
10
-166.531035075911
20
213.385849461586
30
0.0
 70
     32
  0
VERTEX
  8
MY3DLAYER
10
-166.666699363041
20
213.442043449245
30
0.0
 70
     32
  0
VERTEX
  8
MY3DLAYER
10
-166.783196927459
20
213.531435174456
30
0.0
 70
     32
  0
VERTEX
  8
MY3DLAYER
10
-166.87258865267
20
213.647932738874
30
0.0
 70
     32
  0
VERTEX
  8
MY3DLAYER
10
-166.928782640329
20
213.783597026004
30
0.0
 70
     32
  0
VERTEX
  8
MY3DLAYER
10
-166.947949363041
20
213.929182738874
30
0.0
 70
     32
  0
VERTEX
  8
MY3DLAYER
10
-166.928782640329
20
214.074768451744
30
0.0
 70
     32
  0
VERTEX
  8
MY3DLAYER
10
-166.87258865267
20
214.210432738874
30
0.0
 70
     32
  0
VERTEX
  8
MY3DLAYER
10
-166.783196927459
20
214.326930303291
30
0.0
 70
     32
  0
VERTEX
  8
MY3DLAYER
10
-166.666699363041
20
214.416322028502
30
0.0
 70
     32
  0
VERTEX
  8
MY3DLAYER
10
-166.531035075911
20
214.472516016161
30
0.0
 70
     32
  0
VERTEX
  8
MY3DLAYER
10
-166.385449363041
20
214.491682738874
30
0.0
 70
     32
  0
VERTEX
  8
MY3DLAYER
10
-166.239863650171
20
214.472516016161
30
0.0
 70
     32
  0
VERTEX
  8
MY3DLAYER
10
-166.104199363041
20
214.416322028502
30
0.0
 70
     32
  0
VERTEX
  8
MY3DLAYER
10
-165.987701798624
20
214.326930303291
30
0.0
 70
     32
  0
VERTEX
  8
MY3DLAYER
10
-165.898310073412
20
214.210432738874
30
0.0
 70
     32
  0
VERTEX
  8
MY3DLAYER
10
-165.842116085754
20
214.074768451744
30
0.0
 70
     32
  0
VERTEX
  8
MY3DLAYER
10
-165.822949363041
20
213.929182738874
30
0.0
 70
     32
  0
SEQEND
  0
POLYLINE
 8
Layer0
 66
     1
70
    8
 10
0.0
 20
 0.0
 30
0.0
  0
VERTEX
  8
MY3DLAYER
10
-149.822949363041
20
213.929182738874
30
0.0
 70
     32
  0
VERTEX
  8
MY3DLAYER
10
-149.842116085754
20
213.783597026004
30
0.0
 70
     32
  0
VERTEX
  8
MY3DLAYER
10
-149.898310073412
20
213.647932738874
30
0.0
 70
     32
  0
VERTEX
  8
MY3DLAYER
10
-149.987701798624
20
213.531435174456
30
0.0
 70
     32
  0
VERTEX
  8
MY3DLAYER
10
-150.104199363041
20
213.442043449245
30
0.0
 70
     32
  0
VERTEX
  8
MY3DLAYER
10
-150.239863650171
20
213.385849461586
30
0.0
 70
     32
  0
VERTEX
  8
MY3DLAYER
10
-150.385449363041
20
213.366682738874
30
0.0
 70
     32
  0
VERTEX
  8
MY3DLAYER
10
-150.531035075911
20
213.385849461586
30
0.0
 70
     32
  0
VERTEX
  8
MY3DLAYER
10
-150.666699363041
20
213.442043449245
30
0.0
 70
     32
  0
VERTEX
  8
MY3DLAYER
10
-150.783196927459
20
213.531435174456
30
0.0
 70
     32
  0
VERTEX
  8
MY3DLAYER
10
-150.87258865267
20
213.647932738874
30
0.0
 70
     32
  0
VERTEX
  8
MY3DLAYER
10
-150.928782640329
20
213.783597026004
30
0.0
 70
     32
  0
VERTEX
  8
MY3DLAYER
10
-150.947949363041
20
213.929182738874
30
0.0
 70
     32
  0
VERTEX
  8
MY3DLAYER
10
-150.928782640329
20
214.074768451744
30
0.0
 70
     32
  0
VERTEX
  8
MY3DLAYER
10
-150.87258865267
20
214.210432738874
30
0.0
 70
     32
  0
VERTEX
  8
MY3DLAYER
10
-150.783196927459
20
214.326930303291
30
0.0
 70
     32
  0
VERTEX
  8
MY3DLAYER
10
-150.666699363041
20
214.416322028502
30
0.0
 70
     32
  0
VERTEX
  8
MY3DLAYER
10
-150.531035075911
20
214.472516016161
30
0.0
 70
     32
  0
VERTEX
  8
MY3DLAYER
10
-150.385449363041
20
214.491682738874
30
0.0
 70
     32
  0
VERTEX
  8
MY3DLAYER
10
-150.239863650171
20
214.472516016161
30
0.0
 70
     32
  0
VERTEX
  8
MY3DLAYER
10
-150.104199363041
20
214.416322028502
30
0.0
 70
     32
  0
VERTEX
  8
MY3DLAYER
10
-149.987701798624
20
214.326930303291
30
0.0
 70
     32
  0
VERTEX
  8
MY3DLAYER
10
-149.898310073412
20
214.210432738874
30
0.0
 70
     32
  0
VERTEX
  8
MY3DLAYER
10
-149.842116085754
20
214.074768451744
30
0.0
 70
     32
  0
VERTEX
  8
MY3DLAYER
10
-149.822949363041
20
213.929182738874
30
0.0
 70
     32
  0
SEQEND
  0
POLYLINE
 8
Layer0
 66
     1
70
    8
 10
0.0
 20
 0.0
 30
0.0
  0
VERTEX
  8
MY3DLAYER
10
-133.822949363041
20
213.929182738874
30
0.0
 70
     32
  0
VERTEX
  8
MY3DLAYER
10
-133.842116085754
20
213.783597026004
30
0.0
 70
     32
  0
VERTEX
  8
MY3DLAYER
10
-133.898310073412
20
213.647932738874
30
0.0
 70
     32
  0
VERTEX
  8
MY3DLAYER
10
-133.987701798624
20
213.531435174456
30
0.0
 70
     32
  0
VERTEX
  8
MY3DLAYER
10
-134.104199363041
20
213.442043449245
30
0.0
 70
     32
  0
VERTEX
  8
MY3DLAYER
10
-134.239863650171
20
213.385849461586
30
0.0
 70
     32
  0
VERTEX
  8
MY3DLAYER
10
-134.385449363041
20
213.366682738874
30
0.0
 70
     32
  0
VERTEX
  8
MY3DLAYER
10
-134.531035075911
20
213.385849461586
30
0.0
 70
     32
  0
VERTEX
  8
MY3DLAYER
10
-134.666699363041
20
213.442043449245
30
0.0
 70
     32
  0
VERTEX
  8
MY3DLAYER
10
-134.783196927459
20
213.531435174456
30
0.0
 70
     32
  0
VERTEX
  8
MY3DLAYER
10
-134.87258865267
20
213.647932738874
30
0.0
 70
     32
  0
VERTEX
  8
MY3DLAYER
10
-134.928782640329
20
213.783597026004
30
0.0
 70
     32
  0
VERTEX
  8
MY3DLAYER
10
-134.947949363041
20
213.929182738874
30
0.0
 70
     32
  0
VERTEX
  8
MY3DLAYER
10
-134.928782640329
20
214.074768451744
30
0.0
 70
     32
  0
VERTEX
  8
MY3DLAYER
10
-134.87258865267
20
214.210432738874
30
0.0
 70
     32
  0
VERTEX
  8
MY3DLAYER
10
-134.783196927459
20
214.326930303291
30
0.0
 70
     32
  0
VERTEX
  8
MY3DLAYER
10
-134.666699363041
20
214.416322028502
30
0.0
 70
     32
  0
VERTEX
  8
MY3DLAYER
10
-134.531035075911
20
214.472516016161
30
0.0
 70
     32
  0
VERTEX
  8
MY3DLAYER
10
-134.385449363041
20
214.491682738874
30
0.0
 70
     32
  0
VERTEX
  8
MY3DLAYER
10
-134.239863650171
20
214.472516016161
30
0.0
 70
     32
  0
VERTEX
  8
MY3DLAYER
10
-134.104199363041
20
214.416322028502
30
0.0
 70
     32
  0
VERTEX
  8
MY3DLAYER
10
-133.987701798624
20
214.326930303291
30
0.0
 70
     32
  0
VERTEX
  8
MY3DLAYER
10
-133.898310073412
20
214.210432738874
30
0.0
 70
     32
  0
VERTEX
  8
MY3DLAYER
10
-133.842116085754
20
214.074768451744
30
0.0
 70
     32
  0
VERTEX
  8
MY3DLAYER
10
-133.822949363041
20
213.929182738874
30
0.0
 70
     32
  0
SEQEND
  0
POLYLINE
 8
Layer0
 66
     1
70
    8
 10
0.0
 20
 0.0
 30
0.0
  0
VERTEX
  8
MY3DLAYER
10
-153.822949363041
20
213.929182738874
30
0.0
 70
     32
  0
VERTEX
  8
MY3DLAYER
10
-153.842116085754
20
213.783597026004
30
0.0
 70
     32
  0
VERTEX
  8
MY3DLAYER
10
-153.898310073412
20
213.647932738874
30
0.0
 70
     32
  0
VERTEX
  8
MY3DLAYER
10
-153.987701798624
20
213.531435174456
30
0.0
 70
     32
  0
VERTEX
  8
MY3DLAYER
10
-154.104199363041
20
213.442043449245
30
0.0
 70
     32
  0
VERTEX
  8
MY3DLAYER
10
-154.239863650171
20
213.385849461586
30
0.0
 70
     32
  0
VERTEX
  8
MY3DLAYER
10
-154.385449363041
20
213.366682738874
30
0.0
 70
     32
  0
VERTEX
  8
MY3DLAYER
10
-154.531035075911
20
213.385849461586
30
0.0
 70
     32
  0
VERTEX
  8
MY3DLAYER
10
-154.666699363041
20
213.442043449245
30
0.0
 70
     32
  0
VERTEX
  8
MY3DLAYER
10
-154.783196927459
20
213.531435174456
30
0.0
 70
     32
  0
VERTEX
  8
MY3DLAYER
10
-154.87258865267
20
213.647932738874
30
0.0
 70
     32
  0
VERTEX
  8
MY3DLAYER
10
-154.928782640329
20
213.783597026004
30
0.0
 70
     32
  0
VERTEX
  8
MY3DLAYER
10
-154.947949363041
20
213.929182738874
30
0.0
 70
     32
  0
VERTEX
  8
MY3DLAYER
10
-154.928782640329
20
214.074768451744
30
0.0
 70
     32
  0
VERTEX
  8
MY3DLAYER
10
-154.87258865267
20
214.210432738874
30
0.0
 70
     32
  0
VERTEX
  8
MY3DLAYER
10
-154.783196927459
20
214.326930303291
30
0.0
 70
     32
  0
VERTEX
  8
MY3DLAYER
10
-154.666699363041
20
214.416322028502
30
0.0
 70
     32
  0
VERTEX
  8
MY3DLAYER
10
-154.531035075911
20
214.472516016161
30
0.0
 70
     32
  0
VERTEX
  8
MY3DLAYER
10
-154.385449363041
20
214.491682738874
30
0.0
 70
     32
  0
VERTEX
  8
MY3DLAYER
10
-154.239863650171
20
214.472516016161
30
0.0
 70
     32
  0
VERTEX
  8
MY3DLAYER
10
-154.104199363041
20
214.416322028502
30
0.0
 70
     32
  0
VERTEX
  8
MY3DLAYER
10
-153.987701798624
20
214.326930303291
30
0.0
 70
     32
  0
VERTEX
  8
MY3DLAYER
10
-153.898310073412
20
214.210432738874
30
0.0
 70
     32
  0
VERTEX
  8
MY3DLAYER
10
-153.842116085754
20
214.074768451744
30
0.0
 70
     32
  0
VERTEX
  8
MY3DLAYER
10
-153.822949363041
20
213.929182738874
30
0.0
 70
     32
  0
SEQEND
  0
POLYLINE
 8
Layer0
 66
     1
70
    8
 10
0.0
 20
 0.0
 30
0.0
  0
VERTEX
  8
MY3DLAYER
10
-145.822949363041
20
213.929182738874
30
0.0
 70
     32
  0
VERTEX
  8
MY3DLAYER
10
-145.842116085754
20
213.783597026004
30
0.0
 70
     32
  0
VERTEX
  8
MY3DLAYER
10
-145.898310073412
20
213.647932738874
30
0.0
 70
     32
  0
VERTEX
  8
MY3DLAYER
10
-145.987701798624
20
213.531435174456
30
0.0
 70
     32
  0
VERTEX
  8
MY3DLAYER
10
-146.104199363041
20
213.442043449245
30
0.0
 70
     32
  0
VERTEX
  8
MY3DLAYER
10
-146.239863650171
20
213.385849461586
30
0.0
 70
     32
  0
VERTEX
  8
MY3DLAYER
10
-146.385449363041
20
213.366682738874
30
0.0
 70
     32
  0
VERTEX
  8
MY3DLAYER
10
-146.531035075911
20
213.385849461586
30
0.0
 70
     32
  0
VERTEX
  8
MY3DLAYER
10
-146.666699363041
20
213.442043449245
30
0.0
 70
     32
  0
VERTEX
  8
MY3DLAYER
10
-146.783196927459
20
213.531435174456
30
0.0
 70
     32
  0
VERTEX
  8
MY3DLAYER
10
-146.87258865267
20
213.647932738874
30
0.0
 70
     32
  0
VERTEX
  8
MY3DLAYER
10
-146.928782640329
20
213.783597026004
30
0.0
 70
     32
  0
VERTEX
  8
MY3DLAYER
10
-146.947949363041
20
213.929182738874
30
0.0
 70
     32
  0
VERTEX
  8
MY3DLAYER
10
-146.928782640329
20
214.074768451744
30
0.0
 70
     32
  0
VERTEX
  8
MY3DLAYER
10
-146.87258865267
20
214.210432738874
30
0.0
 70
     32
  0
VERTEX
  8
MY3DLAYER
10
-146.783196927459
20
214.326930303291
30
0.0
 70
     32
  0
VERTEX
  8
MY3DLAYER
10
-146.666699363041
20
214.416322028502
30
0.0
 70
     32
  0
VERTEX
  8
MY3DLAYER
10
-146.531035075911
20
214.472516016161
30
0.0
 70
     32
  0
VERTEX
  8
MY3DLAYER
10
-146.385449363041
20
214.491682738874
30
0.0
 70
     32
  0
VERTEX
  8
MY3DLAYER
10
-146.239863650171
20
214.472516016161
30
0.0
 70
     32
  0
VERTEX
  8
MY3DLAYER
10
-146.104199363041
20
214.416322028502
30
0.0
 70
     32
  0
VERTEX
  8
MY3DLAYER
10
-145.987701798624
20
214.326930303291
30
0.0
 70
     32
  0
VERTEX
  8
MY3DLAYER
10
-145.898310073412
20
214.210432738874
30
0.0
 70
     32
  0
VERTEX
  8
MY3DLAYER
10
-145.842116085754
20
214.074768451744
30
0.0
 70
     32
  0
VERTEX
  8
MY3DLAYER
10
-145.822949363041
20
213.929182738874
30
0.0
 70
     32
  0
SEQEND
  0
POLYLINE
 8
Layer0
 66
     1
70
    8
 10
0.0
 20
 0.0
 30
0.0
  0
VERTEX
  8
MY3DLAYER
10
-173.822949363041
20
213.929182738874
30
0.0
 70
     32
  0
VERTEX
  8
MY3DLAYER
10
-173.842116085754
20
213.783597026004
30
0.0
 70
     32
  0
VERTEX
  8
MY3DLAYER
10
-173.898310073412
20
213.647932738874
30
0.0
 70
     32
  0
VERTEX
  8
MY3DLAYER
10
-173.987701798624
20
213.531435174456
30
0.0
 70
     32
  0
VERTEX
  8
MY3DLAYER
10
-174.104199363041
20
213.442043449245
30
0.0
 70
     32
  0
VERTEX
  8
MY3DLAYER
10
-174.239863650171
20
213.385849461586
30
0.0
 70
     32
  0
VERTEX
  8
MY3DLAYER
10
-174.385449363041
20
213.366682738874
30
0.0
 70
     32
  0
VERTEX
  8
MY3DLAYER
10
-174.531035075911
20
213.385849461586
30
0.0
 70
     32
  0
VERTEX
  8
MY3DLAYER
10
-174.666699363041
20
213.442043449245
30
0.0
 70
     32
  0
VERTEX
  8
MY3DLAYER
10
-174.783196927459
20
213.531435174456
30
0.0
 70
     32
  0
VERTEX
  8
MY3DLAYER
10
-174.87258865267
20
213.647932738874
30
0.0
 70
     32
  0
VERTEX
  8
MY3DLAYER
10
-174.928782640329
20
213.783597026004
30
0.0
 70
     32
  0
VERTEX
  8
MY3DLAYER
10
-174.947949363041
20
213.929182738874
30
0.0
 70
     32
  0
VERTEX
  8
MY3DLAYER
10
-174.928782640329
20
214.074768451744
30
0.0
 70
     32
  0
VERTEX
  8
MY3DLAYER
10
-174.87258865267
20
214.210432738874
30
0.0
 70
     32
  0
VERTEX
  8
MY3DLAYER
10
-174.783196927459
20
214.326930303291
30
0.0
 70
     32
  0
VERTEX
  8
MY3DLAYER
10
-174.666699363041
20
214.416322028502
30
0.0
 70
     32
  0
VERTEX
  8
MY3DLAYER
10
-174.531035075911
20
214.472516016161
30
0.0
 70
     32
  0
VERTEX
  8
MY3DLAYER
10
-174.385449363041
20
214.491682738874
30
0.0
 70
     32
  0
VERTEX
  8
MY3DLAYER
10
-174.239863650171
20
214.472516016161
30
0.0
 70
     32
  0
VERTEX
  8
MY3DLAYER
10
-174.104199363041
20
214.416322028502
30
0.0
 70
     32
  0
VERTEX
  8
MY3DLAYER
10
-173.987701798624
20
214.326930303291
30
0.0
 70
     32
  0
VERTEX
  8
MY3DLAYER
10
-173.898310073412
20
214.210432738874
30
0.0
 70
     32
  0
VERTEX
  8
MY3DLAYER
10
-173.842116085754
20
214.074768451744
30
0.0
 70
     32
  0
VERTEX
  8
MY3DLAYER
10
-173.822949363041
20
213.929182738874
30
0.0
 70
     32
  0
SEQEND
  0
POLYLINE
 8
Layer0
 66
     1
70
    8
 10
0.0
 20
 0.0
 30
0.0
  0
VERTEX
  8
MY3DLAYER
10
-105.822949363041
20
213.929182738874
30
0.0
 70
     32
  0
VERTEX
  8
MY3DLAYER
10
-105.842116085754
20
213.783597026004
30
0.0
 70
     32
  0
VERTEX
  8
MY3DLAYER
10
-105.898310073412
20
213.647932738874
30
0.0
 70
     32
  0
VERTEX
  8
MY3DLAYER
10
-105.987701798624
20
213.531435174456
30
0.0
 70
     32
  0
VERTEX
  8
MY3DLAYER
10
-106.104199363041
20
213.442043449245
30
0.0
 70
     32
  0
VERTEX
  8
MY3DLAYER
10
-106.239863650171
20
213.385849461586
30
0.0
 70
     32
  0
VERTEX
  8
MY3DLAYER
10
-106.385449363041
20
213.366682738874
30
0.0
 70
     32
  0
VERTEX
  8
MY3DLAYER
10
-106.531035075911
20
213.385849461586
30
0.0
 70
     32
  0
VERTEX
  8
MY3DLAYER
10
-106.666699363041
20
213.442043449245
30
0.0
 70
     32
  0
VERTEX
  8
MY3DLAYER
10
-106.783196927459
20
213.531435174456
30
0.0
 70
     32
  0
VERTEX
  8
MY3DLAYER
10
-106.87258865267
20
213.647932738874
30
0.0
 70
     32
  0
VERTEX
  8
MY3DLAYER
10
-106.928782640329
20
213.783597026004
30
0.0
 70
     32
  0
VERTEX
  8
MY3DLAYER
10
-106.947949363041
20
213.929182738874
30
0.0
 70
     32
  0
VERTEX
  8
MY3DLAYER
10
-106.928782640329
20
214.074768451744
30
0.0
 70
     32
  0
VERTEX
  8
MY3DLAYER
10
-106.87258865267
20
214.210432738874
30
0.0
 70
     32
  0
VERTEX
  8
MY3DLAYER
10
-106.783196927459
20
214.326930303291
30
0.0
 70
     32
  0
VERTEX
  8
MY3DLAYER
10
-106.666699363041
20
214.416322028502
30
0.0
 70
     32
  0
VERTEX
  8
MY3DLAYER
10
-106.531035075911
20
214.472516016161
30
0.0
 70
     32
  0
VERTEX
  8
MY3DLAYER
10
-106.385449363041
20
214.491682738874
30
0.0
 70
     32
  0
VERTEX
  8
MY3DLAYER
10
-106.239863650171
20
214.472516016161
30
0.0
 70
     32
  0
VERTEX
  8
MY3DLAYER
10
-106.104199363041
20
214.416322028502
30
0.0
 70
     32
  0
VERTEX
  8
MY3DLAYER
10
-105.987701798624
20
214.326930303291
30
0.0
 70
     32
  0
VERTEX
  8
MY3DLAYER
10
-105.898310073412
20
214.210432738874
30
0.0
 70
     32
  0
VERTEX
  8
MY3DLAYER
10
-105.842116085754
20
214.074768451744
30
0.0
 70
     32
  0
VERTEX
  8
MY3DLAYER
10
-105.822949363041
20
213.929182738874
30
0.0
 70
     32
  0
SEQEND
  0
POLYLINE
 8
Layer0
 66
     1
70
    8
 10
0.0
 20
 0.0
 30
0.0
  0
VERTEX
  8
MY3DLAYER
10
-117.822949363041
20
213.929182738874
30
0.0
 70
     32
  0
VERTEX
  8
MY3DLAYER
10
-117.842116085754
20
213.783597026004
30
0.0
 70
     32
  0
VERTEX
  8
MY3DLAYER
10
-117.898310073412
20
213.647932738874
30
0.0
 70
     32
  0
VERTEX
  8
MY3DLAYER
10
-117.987701798624
20
213.531435174456
30
0.0
 70
     32
  0
VERTEX
  8
MY3DLAYER
10
-118.104199363041
20
213.442043449245
30
0.0
 70
     32
  0
VERTEX
  8
MY3DLAYER
10
-118.239863650171
20
213.385849461586
30
0.0
 70
     32
  0
VERTEX
  8
MY3DLAYER
10
-118.385449363041
20
213.366682738874
30
0.0
 70
     32
  0
VERTEX
  8
MY3DLAYER
10
-118.531035075911
20
213.385849461586
30
0.0
 70
     32
  0
VERTEX
  8
MY3DLAYER
10
-118.666699363041
20
213.442043449245
30
0.0
 70
     32
  0
VERTEX
  8
MY3DLAYER
10
-118.783196927459
20
213.531435174456
30
0.0
 70
     32
  0
VERTEX
  8
MY3DLAYER
10
-118.87258865267
20
213.647932738874
30
0.0
 70
     32
  0
VERTEX
  8
MY3DLAYER
10
-118.928782640329
20
213.783597026004
30
0.0
 70
     32
  0
VERTEX
  8
MY3DLAYER
10
-118.947949363041
20
213.929182738874
30
0.0
 70
     32
  0
VERTEX
  8
MY3DLAYER
10
-118.928782640329
20
214.074768451744
30
0.0
 70
     32
  0
VERTEX
  8
MY3DLAYER
10
-118.87258865267
20
214.210432738874
30
0.0
 70
     32
  0
VERTEX
  8
MY3DLAYER
10
-118.783196927459
20
214.326930303291
30
0.0
 70
     32
  0
VERTEX
  8
MY3DLAYER
10
-118.666699363041
20
214.416322028502
30
0.0
 70
     32
  0
VERTEX
  8
MY3DLAYER
10
-118.531035075911
20
214.472516016161
30
0.0
 70
     32
  0
VERTEX
  8
MY3DLAYER
10
-118.385449363041
20
214.491682738874
30
0.0
 70
     32
  0
VERTEX
  8
MY3DLAYER
10
-118.239863650171
20
214.472516016161
30
0.0
 70
     32
  0
VERTEX
  8
MY3DLAYER
10
-118.104199363041
20
214.416322028502
30
0.0
 70
     32
  0
VERTEX
  8
MY3DLAYER
10
-117.987701798624
20
214.326930303291
30
0.0
 70
     32
  0
VERTEX
  8
MY3DLAYER
10
-117.898310073412
20
214.210432738874
30
0.0
 70
     32
  0
VERTEX
  8
MY3DLAYER
10
-117.842116085754
20
214.074768451744
30
0.0
 70
     32
  0
VERTEX
  8
MY3DLAYER
10
-117.822949363041
20
213.929182738874
30
0.0
 70
     32
  0
SEQEND
  0
POLYLINE
 8
Layer0
 66
     1
70
    8
 10
0.0
 20
 0.0
 30
0.0
  0
VERTEX
  8
MY3DLAYER
10
-113.822949363041
20
213.929182738874
30
0.0
 70
     32
  0
VERTEX
  8
MY3DLAYER
10
-113.842116085754
20
213.783597026004
30
0.0
 70
     32
  0
VERTEX
  8
MY3DLAYER
10
-113.898310073412
20
213.647932738874
30
0.0
 70
     32
  0
VERTEX
  8
MY3DLAYER
10
-113.987701798624
20
213.531435174456
30
0.0
 70
     32
  0
VERTEX
  8
MY3DLAYER
10
-114.104199363041
20
213.442043449245
30
0.0
 70
     32
  0
VERTEX
  8
MY3DLAYER
10
-114.239863650171
20
213.385849461586
30
0.0
 70
     32
  0
VERTEX
  8
MY3DLAYER
10
-114.385449363041
20
213.366682738874
30
0.0
 70
     32
  0
VERTEX
  8
MY3DLAYER
10
-114.531035075911
20
213.385849461586
30
0.0
 70
     32
  0
VERTEX
  8
MY3DLAYER
10
-114.666699363041
20
213.442043449245
30
0.0
 70
     32
  0
VERTEX
  8
MY3DLAYER
10
-114.783196927459
20
213.531435174456
30
0.0
 70
     32
  0
VERTEX
  8
MY3DLAYER
10
-114.87258865267
20
213.647932738874
30
0.0
 70
     32
  0
VERTEX
  8
MY3DLAYER
10
-114.928782640329
20
213.783597026004
30
0.0
 70
     32
  0
VERTEX
  8
MY3DLAYER
10
-114.947949363041
20
213.929182738874
30
0.0
 70
     32
  0
VERTEX
  8
MY3DLAYER
10
-114.928782640329
20
214.074768451744
30
0.0
 70
     32
  0
VERTEX
  8
MY3DLAYER
10
-114.87258865267
20
214.210432738874
30
0.0
 70
     32
  0
VERTEX
  8
MY3DLAYER
10
-114.783196927459
20
214.326930303291
30
0.0
 70
     32
  0
VERTEX
  8
MY3DLAYER
10
-114.666699363041
20
214.416322028502
30
0.0
 70
     32
  0
VERTEX
  8
MY3DLAYER
10
-114.531035075911
20
214.472516016161
30
0.0
 70
     32
  0
VERTEX
  8
MY3DLAYER
10
-114.385449363041
20
214.491682738874
30
0.0
 70
     32
  0
VERTEX
  8
MY3DLAYER
10
-114.239863650171
20
214.472516016161
30
0.0
 70
     32
  0
VERTEX
  8
MY3DLAYER
10
-114.104199363041
20
214.416322028502
30
0.0
 70
     32
  0
VERTEX
  8
MY3DLAYER
10
-113.987701798624
20
214.326930303291
30
0.0
 70
     32
  0
VERTEX
  8
MY3DLAYER
10
-113.898310073412
20
214.210432738874
30
0.0
 70
     32
  0
VERTEX
  8
MY3DLAYER
10
-113.842116085754
20
214.074768451744
30
0.0
 70
     32
  0
VERTEX
  8
MY3DLAYER
10
-113.822949363041
20
213.929182738874
30
0.0
 70
     32
  0
SEQEND
  0
POLYLINE
 8
Layer0
 66
     1
70
    8
 10
0.0
 20
 0.0
 30
0.0
  0
VERTEX
  8
MY3DLAYER
10
-141.822949363041
20
213.929182738874
30
0.0
 70
     32
  0
VERTEX
  8
MY3DLAYER
10
-141.842116085754
20
213.783597026004
30
0.0
 70
     32
  0
VERTEX
  8
MY3DLAYER
10
-141.898310073412
20
213.647932738874
30
0.0
 70
     32
  0
VERTEX
  8
MY3DLAYER
10
-141.987701798624
20
213.531435174456
30
0.0
 70
     32
  0
VERTEX
  8
MY3DLAYER
10
-142.104199363041
20
213.442043449245
30
0.0
 70
     32
  0
VERTEX
  8
MY3DLAYER
10
-142.239863650171
20
213.385849461586
30
0.0
 70
     32
  0
VERTEX
  8
MY3DLAYER
10
-142.385449363041
20
213.366682738874
30
0.0
 70
     32
  0
VERTEX
  8
MY3DLAYER
10
-142.531035075911
20
213.385849461586
30
0.0
 70
     32
  0
VERTEX
  8
MY3DLAYER
10
-142.666699363041
20
213.442043449245
30
0.0
 70
     32
  0
VERTEX
  8
MY3DLAYER
10
-142.783196927459
20
213.531435174456
30
0.0
 70
     32
  0
VERTEX
  8
MY3DLAYER
10
-142.87258865267
20
213.647932738874
30
0.0
 70
     32
  0
VERTEX
  8
MY3DLAYER
10
-142.928782640329
20
213.783597026004
30
0.0
 70
     32
  0
VERTEX
  8
MY3DLAYER
10
-142.947949363041
20
213.929182738874
30
0.0
 70
     32
  0
VERTEX
  8
MY3DLAYER
10
-142.928782640329
20
214.074768451744
30
0.0
 70
     32
  0
VERTEX
  8
MY3DLAYER
10
-142.87258865267
20
214.210432738874
30
0.0
 70
     32
  0
VERTEX
  8
MY3DLAYER
10
-142.783196927459
20
214.326930303291
30
0.0
 70
     32
  0
VERTEX
  8
MY3DLAYER
10
-142.666699363041
20
214.416322028502
30
0.0
 70
     32
  0
VERTEX
  8
MY3DLAYER
10
-142.531035075911
20
214.472516016161
30
0.0
 70
     32
  0
VERTEX
  8
MY3DLAYER
10
-142.385449363041
20
214.491682738874
30
0.0
 70
     32
  0
VERTEX
  8
MY3DLAYER
10
-142.239863650171
20
214.472516016161
30
0.0
 70
     32
  0
VERTEX
  8
MY3DLAYER
10
-142.104199363041
20
214.416322028502
30
0.0
 70
     32
  0
VERTEX
  8
MY3DLAYER
10
-141.987701798624
20
214.326930303291
30
0.0
 70
     32
  0
VERTEX
  8
MY3DLAYER
10
-141.898310073412
20
214.210432738874
30
0.0
 70
     32
  0
VERTEX
  8
MY3DLAYER
10
-141.842116085754
20
214.074768451744
30
0.0
 70
     32
  0
VERTEX
  8
MY3DLAYER
10
-141.822949363041
20
213.929182738874
30
0.0
 70
     32
  0
SEQEND
  0
POLYLINE
 8
Layer0
 66
     1
70
    8
 10
0.0
 20
 0.0
 30
0.0
  0
VERTEX
  8
MY3DLAYER
10
-61.8229493630411
20
213.929182738874
30
0.0
 70
     32
  0
VERTEX
  8
MY3DLAYER
10
-61.8421160857535
20
213.783597026004
30
0.0
 70
     32
  0
VERTEX
  8
MY3DLAYER
10
-61.8983100734124
20
213.647932738874
30
0.0
 70
     32
  0
VERTEX
  8
MY3DLAYER
10
-61.9877017986237
20
213.531435174456
30
0.0
 70
     32
  0
VERTEX
  8
MY3DLAYER
10
-62.1041993630411
20
213.442043449245
30
0.0
 70
     32
  0
VERTEX
  8
MY3DLAYER
10
-62.2398636501709
20
213.385849461586
30
0.0
 70
     32
  0
VERTEX
  8
MY3DLAYER
10
-62.3854493630411
20
213.366682738874
30
0.0
 70
     32
  0
VERTEX
  8
MY3DLAYER
10
-62.5310350759113
20
213.385849461586
30
0.0
 70
     32
  0
VERTEX
  8
MY3DLAYER
10
-62.6666993630411
20
213.442043449245
30
0.0
 70
     32
  0
VERTEX
  8
MY3DLAYER
10
-62.7831969274585
20
213.531435174456
30
0.0
 70
     32
  0
VERTEX
  8
MY3DLAYER
10
-62.8725886526699
20
213.647932738874
30
0.0
 70
     32
  0
VERTEX
  8
MY3DLAYER
10
-62.9287826403287
20
213.783597026004
30
0.0
 70
     32
  0
VERTEX
  8
MY3DLAYER
10
-62.9479493630411
20
213.929182738874
30
0.0
 70
     32
  0
VERTEX
  8
MY3DLAYER
10
-62.9287826403287
20
214.074768451744
30
0.0
 70
     32
  0
VERTEX
  8
MY3DLAYER
10
-62.8725886526698
20
214.210432738874
30
0.0
 70
     32
  0
VERTEX
  8
MY3DLAYER
10
-62.7831969274585
20
214.326930303291
30
0.0
 70
     32
  0
VERTEX
  8
MY3DLAYER
10
-62.6666993630411
20
214.416322028502
30
0.0
 70
     32
  0
VERTEX
  8
MY3DLAYER
10
-62.5310350759113
20
214.472516016161
30
0.0
 70
     32
  0
VERTEX
  8
MY3DLAYER
10
-62.3854493630411
20
214.491682738874
30
0.0
 70
     32
  0
VERTEX
  8
MY3DLAYER
10
-62.2398636501709
20
214.472516016161
30
0.0
 70
     32
  0
VERTEX
  8
MY3DLAYER
10
-62.1041993630411
20
214.416322028502
30
0.0
 70
     32
  0
VERTEX
  8
MY3DLAYER
10
-61.9877017986237
20
214.326930303291
30
0.0
 70
     32
  0
VERTEX
  8
MY3DLAYER
10
-61.8983100734124
20
214.210432738874
30
0.0
 70
     32
  0
VERTEX
  8
MY3DLAYER
10
-61.8421160857535
20
214.074768451744
30
0.0
 70
     32
  0
VERTEX
  8
MY3DLAYER
10
-61.8229493630411
20
213.929182738874
30
0.0
 70
     32
  0
SEQEND
  0
POLYLINE
 8
Layer0
 66
     1
70
    8
 10
0.0
 20
 0.0
 30
0.0
  0
VERTEX
  8
MY3DLAYER
10
-85.8229493630411
20
213.929182738874
30
0.0
 70
     32
  0
VERTEX
  8
MY3DLAYER
10
-85.8421160857535
20
213.783597026004
30
0.0
 70
     32
  0
VERTEX
  8
MY3DLAYER
10
-85.8983100734124
20
213.647932738874
30
0.0
 70
     32
  0
VERTEX
  8
MY3DLAYER
10
-85.9877017986237
20
213.531435174456
30
0.0
 70
     32
  0
VERTEX
  8
MY3DLAYER
10
-86.1041993630411
20
213.442043449245
30
0.0
 70
     32
  0
VERTEX
  8
MY3DLAYER
10
-86.2398636501709
20
213.385849461586
30
0.0
 70
     32
  0
VERTEX
  8
MY3DLAYER
10
-86.3854493630411
20
213.366682738874
30
0.0
 70
     32
  0
VERTEX
  8
MY3DLAYER
10
-86.5310350759113
20
213.385849461586
30
0.0
 70
     32
  0
VERTEX
  8
MY3DLAYER
10
-86.6666993630411
20
213.442043449245
30
0.0
 70
     32
  0
VERTEX
  8
MY3DLAYER
10
-86.7831969274585
20
213.531435174456
30
0.0
 70
     32
  0
VERTEX
  8
MY3DLAYER
10
-86.8725886526699
20
213.647932738874
30
0.0
 70
     32
  0
VERTEX
  8
MY3DLAYER
10
-86.9287826403287
20
213.783597026004
30
0.0
 70
     32
  0
VERTEX
  8
MY3DLAYER
10
-86.9479493630411
20
213.929182738874
30
0.0
 70
     32
  0
VERTEX
  8
MY3DLAYER
10
-86.9287826403287
20
214.074768451744
30
0.0
 70
     32
  0
VERTEX
  8
MY3DLAYER
10
-86.8725886526698
20
214.210432738874
30
0.0
 70
     32
  0
VERTEX
  8
MY3DLAYER
10
-86.7831969274585
20
214.326930303291
30
0.0
 70
     32
  0
VERTEX
  8
MY3DLAYER
10
-86.6666993630411
20
214.416322028502
30
0.0
 70
     32
  0
VERTEX
  8
MY3DLAYER
10
-86.5310350759113
20
214.472516016161
30
0.0
 70
     32
  0
VERTEX
  8
MY3DLAYER
10
-86.3854493630411
20
214.491682738874
30
0.0
 70
     32
  0
VERTEX
  8
MY3DLAYER
10
-86.2398636501709
20
214.472516016161
30
0.0
 70
     32
  0
VERTEX
  8
MY3DLAYER
10
-86.1041993630411
20
214.416322028502
30
0.0
 70
     32
  0
VERTEX
  8
MY3DLAYER
10
-85.9877017986237
20
214.326930303291
30
0.0
 70
     32
  0
VERTEX
  8
MY3DLAYER
10
-85.8983100734124
20
214.210432738874
30
0.0
 70
     32
  0
VERTEX
  8
MY3DLAYER
10
-85.8421160857535
20
214.074768451744
30
0.0
 70
     32
  0
VERTEX
  8
MY3DLAYER
10
-85.8229493630411
20
213.929182738874
30
0.0
 70
     32
  0
SEQEND
  0
POLYLINE
 8
Layer0
 66
     1
70
    8
 10
0.0
 20
 0.0
 30
0.0
  0
VERTEX
  8
MY3DLAYER
10
-137.822949363041
20
213.929182738874
30
0.0
 70
     32
  0
VERTEX
  8
MY3DLAYER
10
-137.842116085754
20
213.783597026004
30
0.0
 70
     32
  0
VERTEX
  8
MY3DLAYER
10
-137.898310073412
20
213.647932738874
30
0.0
 70
     32
  0
VERTEX
  8
MY3DLAYER
10
-137.987701798624
20
213.531435174456
30
0.0
 70
     32
  0
VERTEX
  8
MY3DLAYER
10
-138.104199363041
20
213.442043449245
30
0.0
 70
     32
  0
VERTEX
  8
MY3DLAYER
10
-138.239863650171
20
213.385849461586
30
0.0
 70
     32
  0
VERTEX
  8
MY3DLAYER
10
-138.385449363041
20
213.366682738874
30
0.0
 70
     32
  0
VERTEX
  8
MY3DLAYER
10
-138.531035075911
20
213.385849461586
30
0.0
 70
     32
  0
VERTEX
  8
MY3DLAYER
10
-138.666699363041
20
213.442043449245
30
0.0
 70
     32
  0
VERTEX
  8
MY3DLAYER
10
-138.783196927459
20
213.531435174456
30
0.0
 70
     32
  0
VERTEX
  8
MY3DLAYER
10
-138.87258865267
20
213.647932738874
30
0.0
 70
     32
  0
VERTEX
  8
MY3DLAYER
10
-138.928782640329
20
213.783597026004
30
0.0
 70
     32
  0
VERTEX
  8
MY3DLAYER
10
-138.947949363041
20
213.929182738874
30
0.0
 70
     32
  0
VERTEX
  8
MY3DLAYER
10
-138.928782640329
20
214.074768451744
30
0.0
 70
     32
  0
VERTEX
  8
MY3DLAYER
10
-138.87258865267
20
214.210432738874
30
0.0
 70
     32
  0
VERTEX
  8
MY3DLAYER
10
-138.783196927459
20
214.326930303291
30
0.0
 70
     32
  0
VERTEX
  8
MY3DLAYER
10
-138.666699363041
20
214.416322028502
30
0.0
 70
     32
  0
VERTEX
  8
MY3DLAYER
10
-138.531035075911
20
214.472516016161
30
0.0
 70
     32
  0
VERTEX
  8
MY3DLAYER
10
-138.385449363041
20
214.491682738874
30
0.0
 70
     32
  0
VERTEX
  8
MY3DLAYER
10
-138.239863650171
20
214.472516016161
30
0.0
 70
     32
  0
VERTEX
  8
MY3DLAYER
10
-138.104199363041
20
214.416322028502
30
0.0
 70
     32
  0
VERTEX
  8
MY3DLAYER
10
-137.987701798624
20
214.326930303291
30
0.0
 70
     32
  0
VERTEX
  8
MY3DLAYER
10
-137.898310073412
20
214.210432738874
30
0.0
 70
     32
  0
VERTEX
  8
MY3DLAYER
10
-137.842116085754
20
214.074768451744
30
0.0
 70
     32
  0
VERTEX
  8
MY3DLAYER
10
-137.822949363041
20
213.929182738874
30
0.0
 70
     32
  0
SEQEND
  0
POLYLINE
 8
Layer0
 66
     1
70
    8
 10
0.0
 20
 0.0
 30
0.0
  0
VERTEX
  8
MY3DLAYER
10
-161.822949363041
20
213.929182738874
30
0.0
 70
     32
  0
VERTEX
  8
MY3DLAYER
10
-161.842116085754
20
213.783597026004
30
0.0
 70
     32
  0
VERTEX
  8
MY3DLAYER
10
-161.898310073412
20
213.647932738874
30
0.0
 70
     32
  0
VERTEX
  8
MY3DLAYER
10
-161.987701798624
20
213.531435174456
30
0.0
 70
     32
  0
VERTEX
  8
MY3DLAYER
10
-162.104199363041
20
213.442043449245
30
0.0
 70
     32
  0
VERTEX
  8
MY3DLAYER
10
-162.239863650171
20
213.385849461586
30
0.0
 70
     32
  0
VERTEX
  8
MY3DLAYER
10
-162.385449363041
20
213.366682738874
30
0.0
 70
     32
  0
VERTEX
  8
MY3DLAYER
10
-162.531035075911
20
213.385849461586
30
0.0
 70
     32
  0
VERTEX
  8
MY3DLAYER
10
-162.666699363041
20
213.442043449245
30
0.0
 70
     32
  0
VERTEX
  8
MY3DLAYER
10
-162.783196927459
20
213.531435174456
30
0.0
 70
     32
  0
VERTEX
  8
MY3DLAYER
10
-162.87258865267
20
213.647932738874
30
0.0
 70
     32
  0
VERTEX
  8
MY3DLAYER
10
-162.928782640329
20
213.783597026004
30
0.0
 70
     32
  0
VERTEX
  8
MY3DLAYER
10
-162.947949363041
20
213.929182738874
30
0.0
 70
     32
  0
VERTEX
  8
MY3DLAYER
10
-162.928782640329
20
214.074768451744
30
0.0
 70
     32
  0
VERTEX
  8
MY3DLAYER
10
-162.87258865267
20
214.210432738874
30
0.0
 70
     32
  0
VERTEX
  8
MY3DLAYER
10
-162.783196927459
20
214.326930303291
30
0.0
 70
     32
  0
VERTEX
  8
MY3DLAYER
10
-162.666699363041
20
214.416322028502
30
0.0
 70
     32
  0
VERTEX
  8
MY3DLAYER
10
-162.531035075911
20
214.472516016161
30
0.0
 70
     32
  0
VERTEX
  8
MY3DLAYER
10
-162.385449363041
20
214.491682738874
30
0.0
 70
     32
  0
VERTEX
  8
MY3DLAYER
10
-162.239863650171
20
214.472516016161
30
0.0
 70
     32
  0
VERTEX
  8
MY3DLAYER
10
-162.104199363041
20
214.416322028502
30
0.0
 70
     32
  0
VERTEX
  8
MY3DLAYER
10
-161.987701798624
20
214.326930303291
30
0.0
 70
     32
  0
VERTEX
  8
MY3DLAYER
10
-161.898310073412
20
214.210432738874
30
0.0
 70
     32
  0
VERTEX
  8
MY3DLAYER
10
-161.842116085754
20
214.074768451744
30
0.0
 70
     32
  0
VERTEX
  8
MY3DLAYER
10
-161.822949363041
20
213.929182738874
30
0.0
 70
     32
  0
SEQEND
  0
POLYLINE
 8
Layer0
 66
     1
70
    8
 10
0.0
 20
 0.0
 30
0.0
  0
VERTEX
  8
MY3DLAYER
10
-89.8229493630411
20
213.929182738874
30
0.0
 70
     32
  0
VERTEX
  8
MY3DLAYER
10
-89.8421160857535
20
213.783597026004
30
0.0
 70
     32
  0
VERTEX
  8
MY3DLAYER
10
-89.8983100734124
20
213.647932738874
30
0.0
 70
     32
  0
VERTEX
  8
MY3DLAYER
10
-89.9877017986237
20
213.531435174456
30
0.0
 70
     32
  0
VERTEX
  8
MY3DLAYER
10
-90.1041993630411
20
213.442043449245
30
0.0
 70
     32
  0
VERTEX
  8
MY3DLAYER
10
-90.2398636501709
20
213.385849461586
30
0.0
 70
     32
  0
VERTEX
  8
MY3DLAYER
10
-90.3854493630411
20
213.366682738874
30
0.0
 70
     32
  0
VERTEX
  8
MY3DLAYER
10
-90.5310350759113
20
213.385849461586
30
0.0
 70
     32
  0
VERTEX
  8
MY3DLAYER
10
-90.6666993630411
20
213.442043449245
30
0.0
 70
     32
  0
VERTEX
  8
MY3DLAYER
10
-90.7831969274585
20
213.531435174456
30
0.0
 70
     32
  0
VERTEX
  8
MY3DLAYER
10
-90.8725886526699
20
213.647932738874
30
0.0
 70
     32
  0
VERTEX
  8
MY3DLAYER
10
-90.9287826403287
20
213.783597026004
30
0.0
 70
     32
  0
VERTEX
  8
MY3DLAYER
10
-90.9479493630411
20
213.929182738874
30
0.0
 70
     32
  0
VERTEX
  8
MY3DLAYER
10
-90.9287826403287
20
214.074768451744
30
0.0
 70
     32
  0
VERTEX
  8
MY3DLAYER
10
-90.8725886526698
20
214.210432738874
30
0.0
 70
     32
  0
VERTEX
  8
MY3DLAYER
10
-90.7831969274585
20
214.326930303291
30
0.0
 70
     32
  0
VERTEX
  8
MY3DLAYER
10
-90.6666993630411
20
214.416322028502
30
0.0
 70
     32
  0
VERTEX
  8
MY3DLAYER
10
-90.5310350759113
20
214.472516016161
30
0.0
 70
     32
  0
VERTEX
  8
MY3DLAYER
10
-90.3854493630411
20
214.491682738874
30
0.0
 70
     32
  0
VERTEX
  8
MY3DLAYER
10
-90.2398636501709
20
214.472516016161
30
0.0
 70
     32
  0
VERTEX
  8
MY3DLAYER
10
-90.1041993630411
20
214.416322028502
30
0.0
 70
     32
  0
VERTEX
  8
MY3DLAYER
10
-89.9877017986237
20
214.326930303291
30
0.0
 70
     32
  0
VERTEX
  8
MY3DLAYER
10
-89.8983100734124
20
214.210432738874
30
0.0
 70
     32
  0
VERTEX
  8
MY3DLAYER
10
-89.8421160857535
20
214.074768451744
30
0.0
 70
     32
  0
VERTEX
  8
MY3DLAYER
10
-89.8229493630411
20
213.929182738874
30
0.0
 70
     32
  0
SEQEND
  0
POLYLINE
 8
Layer0
 66
     1
70
    8
 10
0.0
 20
 0.0
 30
0.0
  0
VERTEX
  8
MY3DLAYER
10
-93.8229493630411
20
213.929182738874
30
0.0
 70
     32
  0
VERTEX
  8
MY3DLAYER
10
-93.8421160857535
20
213.783597026004
30
0.0
 70
     32
  0
VERTEX
  8
MY3DLAYER
10
-93.8983100734124
20
213.647932738874
30
0.0
 70
     32
  0
VERTEX
  8
MY3DLAYER
10
-93.9877017986237
20
213.531435174456
30
0.0
 70
     32
  0
VERTEX
  8
MY3DLAYER
10
-94.1041993630411
20
213.442043449245
30
0.0
 70
     32
  0
VERTEX
  8
MY3DLAYER
10
-94.2398636501709
20
213.385849461586
30
0.0
 70
     32
  0
VERTEX
  8
MY3DLAYER
10
-94.3854493630411
20
213.366682738874
30
0.0
 70
     32
  0
VERTEX
  8
MY3DLAYER
10
-94.5310350759113
20
213.385849461586
30
0.0
 70
     32
  0
VERTEX
  8
MY3DLAYER
10
-94.6666993630411
20
213.442043449245
30
0.0
 70
     32
  0
VERTEX
  8
MY3DLAYER
10
-94.7831969274585
20
213.531435174456
30
0.0
 70
     32
  0
VERTEX
  8
MY3DLAYER
10
-94.8725886526699
20
213.647932738874
30
0.0
 70
     32
  0
VERTEX
  8
MY3DLAYER
10
-94.9287826403287
20
213.783597026004
30
0.0
 70
     32
  0
VERTEX
  8
MY3DLAYER
10
-94.9479493630411
20
213.929182738874
30
0.0
 70
     32
  0
VERTEX
  8
MY3DLAYER
10
-94.9287826403287
20
214.074768451744
30
0.0
 70
     32
  0
VERTEX
  8
MY3DLAYER
10
-94.8725886526698
20
214.210432738874
30
0.0
 70
     32
  0
VERTEX
  8
MY3DLAYER
10
-94.7831969274585
20
214.326930303291
30
0.0
 70
     32
  0
VERTEX
  8
MY3DLAYER
10
-94.6666993630411
20
214.416322028502
30
0.0
 70
     32
  0
VERTEX
  8
MY3DLAYER
10
-94.5310350759113
20
214.472516016161
30
0.0
 70
     32
  0
VERTEX
  8
MY3DLAYER
10
-94.3854493630411
20
214.491682738874
30
0.0
 70
     32
  0
VERTEX
  8
MY3DLAYER
10
-94.2398636501709
20
214.472516016161
30
0.0
 70
     32
  0
VERTEX
  8
MY3DLAYER
10
-94.1041993630411
20
214.416322028502
30
0.0
 70
     32
  0
VERTEX
  8
MY3DLAYER
10
-93.9877017986237
20
214.326930303291
30
0.0
 70
     32
  0
VERTEX
  8
MY3DLAYER
10
-93.8983100734124
20
214.210432738874
30
0.0
 70
     32
  0
VERTEX
  8
MY3DLAYER
10
-93.8421160857535
20
214.074768451744
30
0.0
 70
     32
  0
VERTEX
  8
MY3DLAYER
10
-93.8229493630411
20
213.929182738874
30
0.0
 70
     32
  0
SEQEND
  0
POLYLINE
 8
Layer0
 66
     1
70
    8
 10
0.0
 20
 0.0
 30
0.0
  0
VERTEX
  8
MY3DLAYER
10
-169.822949363041
20
213.929182738874
30
0.0
 70
     32
  0
VERTEX
  8
MY3DLAYER
10
-169.842116085754
20
213.783597026004
30
0.0
 70
     32
  0
VERTEX
  8
MY3DLAYER
10
-169.898310073412
20
213.647932738874
30
0.0
 70
     32
  0
VERTEX
  8
MY3DLAYER
10
-169.987701798624
20
213.531435174456
30
0.0
 70
     32
  0
VERTEX
  8
MY3DLAYER
10
-170.104199363041
20
213.442043449245
30
0.0
 70
     32
  0
VERTEX
  8
MY3DLAYER
10
-170.239863650171
20
213.385849461586
30
0.0
 70
     32
  0
VERTEX
  8
MY3DLAYER
10
-170.385449363041
20
213.366682738874
30
0.0
 70
     32
  0
VERTEX
  8
MY3DLAYER
10
-170.531035075911
20
213.385849461586
30
0.0
 70
     32
  0
VERTEX
  8
MY3DLAYER
10
-170.666699363041
20
213.442043449245
30
0.0
 70
     32
  0
VERTEX
  8
MY3DLAYER
10
-170.783196927459
20
213.531435174456
30
0.0
 70
     32
  0
VERTEX
  8
MY3DLAYER
10
-170.87258865267
20
213.647932738874
30
0.0
 70
     32
  0
VERTEX
  8
MY3DLAYER
10
-170.928782640329
20
213.783597026004
30
0.0
 70
     32
  0
VERTEX
  8
MY3DLAYER
10
-170.947949363041
20
213.929182738874
30
0.0
 70
     32
  0
VERTEX
  8
MY3DLAYER
10
-170.928782640329
20
214.074768451744
30
0.0
 70
     32
  0
VERTEX
  8
MY3DLAYER
10
-170.87258865267
20
214.210432738874
30
0.0
 70
     32
  0
VERTEX
  8
MY3DLAYER
10
-170.783196927459
20
214.326930303291
30
0.0
 70
     32
  0
VERTEX
  8
MY3DLAYER
10
-170.666699363041
20
214.416322028502
30
0.0
 70
     32
  0
VERTEX
  8
MY3DLAYER
10
-170.531035075911
20
214.472516016161
30
0.0
 70
     32
  0
VERTEX
  8
MY3DLAYER
10
-170.385449363041
20
214.491682738874
30
0.0
 70
     32
  0
VERTEX
  8
MY3DLAYER
10
-170.239863650171
20
214.472516016161
30
0.0
 70
     32
  0
VERTEX
  8
MY3DLAYER
10
-170.104199363041
20
214.416322028502
30
0.0
 70
     32
  0
VERTEX
  8
MY3DLAYER
10
-169.987701798624
20
214.326930303291
30
0.0
 70
     32
  0
VERTEX
  8
MY3DLAYER
10
-169.898310073412
20
214.210432738874
30
0.0
 70
     32
  0
VERTEX
  8
MY3DLAYER
10
-169.842116085754
20
214.074768451744
30
0.0
 70
     32
  0
VERTEX
  8
MY3DLAYER
10
-169.822949363041
20
213.929182738874
30
0.0
 70
     32
  0
SEQEND
  0
POLYLINE
 8
Layer0
 66
     1
70
    8
 10
0.0
 20
 0.0
 30
0.0
  0
VERTEX
  8
MY3DLAYER
10
-97.8229493630411
20
213.929182738874
30
0.0
 70
     32
  0
VERTEX
  8
MY3DLAYER
10
-97.8421160857535
20
213.783597026004
30
0.0
 70
     32
  0
VERTEX
  8
MY3DLAYER
10
-97.8983100734124
20
213.647932738874
30
0.0
 70
     32
  0
VERTEX
  8
MY3DLAYER
10
-97.9877017986237
20
213.531435174456
30
0.0
 70
     32
  0
VERTEX
  8
MY3DLAYER
10
-98.1041993630411
20
213.442043449245
30
0.0
 70
     32
  0
VERTEX
  8
MY3DLAYER
10
-98.2398636501709
20
213.385849461586
30
0.0
 70
     32
  0
VERTEX
  8
MY3DLAYER
10
-98.3854493630411
20
213.366682738874
30
0.0
 70
     32
  0
VERTEX
  8
MY3DLAYER
10
-98.5310350759113
20
213.385849461586
30
0.0
 70
     32
  0
VERTEX
  8
MY3DLAYER
10
-98.6666993630411
20
213.442043449245
30
0.0
 70
     32
  0
VERTEX
  8
MY3DLAYER
10
-98.7831969274585
20
213.531435174456
30
0.0
 70
     32
  0
VERTEX
  8
MY3DLAYER
10
-98.8725886526699
20
213.647932738874
30
0.0
 70
     32
  0
VERTEX
  8
MY3DLAYER
10
-98.9287826403287
20
213.783597026004
30
0.0
 70
     32
  0
VERTEX
  8
MY3DLAYER
10
-98.9479493630411
20
213.929182738874
30
0.0
 70
     32
  0
VERTEX
  8
MY3DLAYER
10
-98.9287826403287
20
214.074768451744
30
0.0
 70
     32
  0
VERTEX
  8
MY3DLAYER
10
-98.8725886526698
20
214.210432738874
30
0.0
 70
     32
  0
VERTEX
  8
MY3DLAYER
10
-98.7831969274585
20
214.326930303291
30
0.0
 70
     32
  0
VERTEX
  8
MY3DLAYER
10
-98.6666993630411
20
214.416322028502
30
0.0
 70
     32
  0
VERTEX
  8
MY3DLAYER
10
-98.5310350759113
20
214.472516016161
30
0.0
 70
     32
  0
VERTEX
  8
MY3DLAYER
10
-98.3854493630411
20
214.491682738874
30
0.0
 70
     32
  0
VERTEX
  8
MY3DLAYER
10
-98.2398636501709
20
214.472516016161
30
0.0
 70
     32
  0
VERTEX
  8
MY3DLAYER
10
-98.1041993630411
20
214.416322028502
30
0.0
 70
     32
  0
VERTEX
  8
MY3DLAYER
10
-97.9877017986237
20
214.326930303291
30
0.0
 70
     32
  0
VERTEX
  8
MY3DLAYER
10
-97.8983100734124
20
214.210432738874
30
0.0
 70
     32
  0
VERTEX
  8
MY3DLAYER
10
-97.8421160857535
20
214.074768451744
30
0.0
 70
     32
  0
VERTEX
  8
MY3DLAYER
10
-97.8229493630411
20
213.929182738874
30
0.0
 70
     32
  0
SEQEND
  0
POLYLINE
 8
Layer0
 66
     1
70
    8
 10
0.0
 20
 0.0
 30
0.0
  0
VERTEX
  8
MY3DLAYER
10
-73.8229493630411
20
213.929182738874
30
0.0
 70
     32
  0
VERTEX
  8
MY3DLAYER
10
-73.8421160857535
20
213.783597026004
30
0.0
 70
     32
  0
VERTEX
  8
MY3DLAYER
10
-73.8983100734124
20
213.647932738874
30
0.0
 70
     32
  0
VERTEX
  8
MY3DLAYER
10
-73.9877017986237
20
213.531435174456
30
0.0
 70
     32
  0
VERTEX
  8
MY3DLAYER
10
-74.1041993630411
20
213.442043449245
30
0.0
 70
     32
  0
VERTEX
  8
MY3DLAYER
10
-74.2398636501709
20
213.385849461586
30
0.0
 70
     32
  0
VERTEX
  8
MY3DLAYER
10
-74.3854493630411
20
213.366682738874
30
0.0
 70
     32
  0
VERTEX
  8
MY3DLAYER
10
-74.5310350759113
20
213.385849461586
30
0.0
 70
     32
  0
VERTEX
  8
MY3DLAYER
10
-74.6666993630411
20
213.442043449245
30
0.0
 70
     32
  0
VERTEX
  8
MY3DLAYER
10
-74.7831969274585
20
213.531435174456
30
0.0
 70
     32
  0
VERTEX
  8
MY3DLAYER
10
-74.8725886526699
20
213.647932738874
30
0.0
 70
     32
  0
VERTEX
  8
MY3DLAYER
10
-74.9287826403287
20
213.783597026004
30
0.0
 70
     32
  0
VERTEX
  8
MY3DLAYER
10
-74.9479493630411
20
213.929182738874
30
0.0
 70
     32
  0
VERTEX
  8
MY3DLAYER
10
-74.9287826403287
20
214.074768451744
30
0.0
 70
     32
  0
VERTEX
  8
MY3DLAYER
10
-74.8725886526698
20
214.210432738874
30
0.0
 70
     32
  0
VERTEX
  8
MY3DLAYER
10
-74.7831969274585
20
214.326930303291
30
0.0
 70
     32
  0
VERTEX
  8
MY3DLAYER
10
-74.6666993630411
20
214.416322028502
30
0.0
 70
     32
  0
VERTEX
  8
MY3DLAYER
10
-74.5310350759113
20
214.472516016161
30
0.0
 70
     32
  0
VERTEX
  8
MY3DLAYER
10
-74.3854493630411
20
214.491682738874
30
0.0
 70
     32
  0
VERTEX
  8
MY3DLAYER
10
-74.2398636501709
20
214.472516016161
30
0.0
 70
     32
  0
VERTEX
  8
MY3DLAYER
10
-74.1041993630411
20
214.416322028502
30
0.0
 70
     32
  0
VERTEX
  8
MY3DLAYER
10
-73.9877017986237
20
214.326930303291
30
0.0
 70
     32
  0
VERTEX
  8
MY3DLAYER
10
-73.8983100734124
20
214.210432738874
30
0.0
 70
     32
  0
VERTEX
  8
MY3DLAYER
10
-73.8421160857535
20
214.074768451744
30
0.0
 70
     32
  0
VERTEX
  8
MY3DLAYER
10
-73.8229493630411
20
213.929182738874
30
0.0
 70
     32
  0
SEQEND
  0
POLYLINE
 8
Layer0
 66
     1
70
    8
 10
0.0
 20
 0.0
 30
0.0
  0
VERTEX
  8
MY3DLAYER
10
-129.822949363041
20
213.929182738874
30
0.0
 70
     32
  0
VERTEX
  8
MY3DLAYER
10
-129.842116085754
20
213.783597026004
30
0.0
 70
     32
  0
VERTEX
  8
MY3DLAYER
10
-129.898310073412
20
213.647932738874
30
0.0
 70
     32
  0
VERTEX
  8
MY3DLAYER
10
-129.987701798624
20
213.531435174456
30
0.0
 70
     32
  0
VERTEX
  8
MY3DLAYER
10
-130.104199363041
20
213.442043449245
30
0.0
 70
     32
  0
VERTEX
  8
MY3DLAYER
10
-130.239863650171
20
213.385849461586
30
0.0
 70
     32
  0
VERTEX
  8
MY3DLAYER
10
-130.385449363041
20
213.366682738874
30
0.0
 70
     32
  0
VERTEX
  8
MY3DLAYER
10
-130.531035075911
20
213.385849461586
30
0.0
 70
     32
  0
VERTEX
  8
MY3DLAYER
10
-130.666699363041
20
213.442043449245
30
0.0
 70
     32
  0
VERTEX
  8
MY3DLAYER
10
-130.783196927459
20
213.531435174456
30
0.0
 70
     32
  0
VERTEX
  8
MY3DLAYER
10
-130.87258865267
20
213.647932738874
30
0.0
 70
     32
  0
VERTEX
  8
MY3DLAYER
10
-130.928782640329
20
213.783597026004
30
0.0
 70
     32
  0
VERTEX
  8
MY3DLAYER
10
-130.947949363041
20
213.929182738874
30
0.0
 70
     32
  0
VERTEX
  8
MY3DLAYER
10
-130.928782640329
20
214.074768451744
30
0.0
 70
     32
  0
VERTEX
  8
MY3DLAYER
10
-130.87258865267
20
214.210432738874
30
0.0
 70
     32
  0
VERTEX
  8
MY3DLAYER
10
-130.783196927459
20
214.326930303291
30
0.0
 70
     32
  0
VERTEX
  8
MY3DLAYER
10
-130.666699363041
20
214.416322028502
30
0.0
 70
     32
  0
VERTEX
  8
MY3DLAYER
10
-130.531035075911
20
214.472516016161
30
0.0
 70
     32
  0
VERTEX
  8
MY3DLAYER
10
-130.385449363041
20
214.491682738874
30
0.0
 70
     32
  0
VERTEX
  8
MY3DLAYER
10
-130.239863650171
20
214.472516016161
30
0.0
 70
     32
  0
VERTEX
  8
MY3DLAYER
10
-130.104199363041
20
214.416322028502
30
0.0
 70
     32
  0
VERTEX
  8
MY3DLAYER
10
-129.987701798624
20
214.326930303291
30
0.0
 70
     32
  0
VERTEX
  8
MY3DLAYER
10
-129.898310073412
20
214.210432738874
30
0.0
 70
     32
  0
VERTEX
  8
MY3DLAYER
10
-129.842116085754
20
214.074768451744
30
0.0
 70
     32
  0
VERTEX
  8
MY3DLAYER
10
-129.822949363041
20
213.929182738874
30
0.0
 70
     32
  0
SEQEND
  0
POLYLINE
 8
Layer0
 66
     1
70
    8
 10
0.0
 20
 0.0
 30
0.0
  0
VERTEX
  8
MY3DLAYER
10
-57.8229493630411
20
213.929182738874
30
0.0
 70
     32
  0
VERTEX
  8
MY3DLAYER
10
-57.8421160857535
20
213.783597026004
30
0.0
 70
     32
  0
VERTEX
  8
MY3DLAYER
10
-57.8983100734124
20
213.647932738874
30
0.0
 70
     32
  0
VERTEX
  8
MY3DLAYER
10
-57.9877017986237
20
213.531435174456
30
0.0
 70
     32
  0
VERTEX
  8
MY3DLAYER
10
-58.1041993630411
20
213.442043449245
30
0.0
 70
     32
  0
VERTEX
  8
MY3DLAYER
10
-58.2398636501709
20
213.385849461586
30
0.0
 70
     32
  0
VERTEX
  8
MY3DLAYER
10
-58.3854493630411
20
213.366682738874
30
0.0
 70
     32
  0
VERTEX
  8
MY3DLAYER
10
-58.5310350759113
20
213.385849461586
30
0.0
 70
     32
  0
VERTEX
  8
MY3DLAYER
10
-58.6666993630411
20
213.442043449245
30
0.0
 70
     32
  0
VERTEX
  8
MY3DLAYER
10
-58.7831969274585
20
213.531435174456
30
0.0
 70
     32
  0
VERTEX
  8
MY3DLAYER
10
-58.8725886526699
20
213.647932738874
30
0.0
 70
     32
  0
VERTEX
  8
MY3DLAYER
10
-58.9287826403287
20
213.783597026004
30
0.0
 70
     32
  0
VERTEX
  8
MY3DLAYER
10
-58.9479493630411
20
213.929182738874
30
0.0
 70
     32
  0
VERTEX
  8
MY3DLAYER
10
-58.9287826403287
20
214.074768451744
30
0.0
 70
     32
  0
VERTEX
  8
MY3DLAYER
10
-58.8725886526698
20
214.210432738874
30
0.0
 70
     32
  0
VERTEX
  8
MY3DLAYER
10
-58.7831969274585
20
214.326930303291
30
0.0
 70
     32
  0
VERTEX
  8
MY3DLAYER
10
-58.6666993630411
20
214.416322028502
30
0.0
 70
     32
  0
VERTEX
  8
MY3DLAYER
10
-58.5310350759113
20
214.472516016161
30
0.0
 70
     32
  0
VERTEX
  8
MY3DLAYER
10
-58.3854493630411
20
214.491682738874
30
0.0
 70
     32
  0
VERTEX
  8
MY3DLAYER
10
-58.2398636501709
20
214.472516016161
30
0.0
 70
     32
  0
VERTEX
  8
MY3DLAYER
10
-58.1041993630411
20
214.416322028502
30
0.0
 70
     32
  0
VERTEX
  8
MY3DLAYER
10
-57.9877017986237
20
214.326930303291
30
0.0
 70
     32
  0
VERTEX
  8
MY3DLAYER
10
-57.8983100734124
20
214.210432738874
30
0.0
 70
     32
  0
VERTEX
  8
MY3DLAYER
10
-57.8421160857535
20
214.074768451744
30
0.0
 70
     32
  0
VERTEX
  8
MY3DLAYER
10
-57.8229493630411
20
213.929182738874
30
0.0
 70
     32
  0
SEQEND
  0
POLYLINE
 8
Layer0
 66
     1
70
    8
 10
0.0
 20
 0.0
 30
0.0
  0
VERTEX
  8
MY3DLAYER
10
-65.8229493630411
20
213.929182738874
30
0.0
 70
     32
  0
VERTEX
  8
MY3DLAYER
10
-65.8421160857535
20
213.783597026004
30
0.0
 70
     32
  0
VERTEX
  8
MY3DLAYER
10
-65.8983100734124
20
213.647932738874
30
0.0
 70
     32
  0
VERTEX
  8
MY3DLAYER
10
-65.9877017986237
20
213.531435174456
30
0.0
 70
     32
  0
VERTEX
  8
MY3DLAYER
10
-66.1041993630411
20
213.442043449245
30
0.0
 70
     32
  0
VERTEX
  8
MY3DLAYER
10
-66.2398636501709
20
213.385849461586
30
0.0
 70
     32
  0
VERTEX
  8
MY3DLAYER
10
-66.3854493630411
20
213.366682738874
30
0.0
 70
     32
  0
VERTEX
  8
MY3DLAYER
10
-66.5310350759113
20
213.385849461586
30
0.0
 70
     32
  0
VERTEX
  8
MY3DLAYER
10
-66.6666993630411
20
213.442043449245
30
0.0
 70
     32
  0
VERTEX
  8
MY3DLAYER
10
-66.7831969274585
20
213.531435174456
30
0.0
 70
     32
  0
VERTEX
  8
MY3DLAYER
10
-66.8725886526699
20
213.647932738874
30
0.0
 70
     32
  0
VERTEX
  8
MY3DLAYER
10
-66.9287826403287
20
213.783597026004
30
0.0
 70
     32
  0
VERTEX
  8
MY3DLAYER
10
-66.9479493630411
20
213.929182738874
30
0.0
 70
     32
  0
VERTEX
  8
MY3DLAYER
10
-66.9287826403287
20
214.074768451744
30
0.0
 70
     32
  0
VERTEX
  8
MY3DLAYER
10
-66.8725886526698
20
214.210432738874
30
0.0
 70
     32
  0
VERTEX
  8
MY3DLAYER
10
-66.7831969274585
20
214.326930303291
30
0.0
 70
     32
  0
VERTEX
  8
MY3DLAYER
10
-66.6666993630411
20
214.416322028502
30
0.0
 70
     32
  0
VERTEX
  8
MY3DLAYER
10
-66.5310350759113
20
214.472516016161
30
0.0
 70
     32
  0
VERTEX
  8
MY3DLAYER
10
-66.3854493630411
20
214.491682738874
30
0.0
 70
     32
  0
VERTEX
  8
MY3DLAYER
10
-66.2398636501709
20
214.472516016161
30
0.0
 70
     32
  0
VERTEX
  8
MY3DLAYER
10
-66.1041993630411
20
214.416322028502
30
0.0
 70
     32
  0
VERTEX
  8
MY3DLAYER
10
-65.9877017986237
20
214.326930303291
30
0.0
 70
     32
  0
VERTEX
  8
MY3DLAYER
10
-65.8983100734124
20
214.210432738874
30
0.0
 70
     32
  0
VERTEX
  8
MY3DLAYER
10
-65.8421160857535
20
214.074768451744
30
0.0
 70
     32
  0
VERTEX
  8
MY3DLAYER
10
-65.8229493630411
20
213.929182738874
30
0.0
 70
     32
  0
SEQEND
  0
POLYLINE
 8
Layer0
 66
     1
70
    8
 10
0.0
 20
 0.0
 30
0.0
  0
VERTEX
  8
MY3DLAYER
10
-157.822949363041
20
213.929182738874
30
0.0
 70
     32
  0
VERTEX
  8
MY3DLAYER
10
-157.842116085754
20
213.783597026004
30
0.0
 70
     32
  0
VERTEX
  8
MY3DLAYER
10
-157.898310073412
20
213.647932738874
30
0.0
 70
     32
  0
VERTEX
  8
MY3DLAYER
10
-157.987701798624
20
213.531435174456
30
0.0
 70
     32
  0
VERTEX
  8
MY3DLAYER
10
-158.104199363041
20
213.442043449245
30
0.0
 70
     32
  0
VERTEX
  8
MY3DLAYER
10
-158.239863650171
20
213.385849461586
30
0.0
 70
     32
  0
VERTEX
  8
MY3DLAYER
10
-158.385449363041
20
213.366682738874
30
0.0
 70
     32
  0
VERTEX
  8
MY3DLAYER
10
-158.531035075911
20
213.385849461586
30
0.0
 70
     32
  0
VERTEX
  8
MY3DLAYER
10
-158.666699363041
20
213.442043449245
30
0.0
 70
     32
  0
VERTEX
  8
MY3DLAYER
10
-158.783196927459
20
213.531435174456
30
0.0
 70
     32
  0
VERTEX
  8
MY3DLAYER
10
-158.87258865267
20
213.647932738874
30
0.0
 70
     32
  0
VERTEX
  8
MY3DLAYER
10
-158.928782640329
20
213.783597026004
30
0.0
 70
     32
  0
VERTEX
  8
MY3DLAYER
10
-158.947949363041
20
213.929182738874
30
0.0
 70
     32
  0
VERTEX
  8
MY3DLAYER
10
-158.928782640329
20
214.074768451744
30
0.0
 70
     32
  0
VERTEX
  8
MY3DLAYER
10
-158.87258865267
20
214.210432738874
30
0.0
 70
     32
  0
VERTEX
  8
MY3DLAYER
10
-158.783196927459
20
214.326930303291
30
0.0
 70
     32
  0
VERTEX
  8
MY3DLAYER
10
-158.666699363041
20
214.416322028502
30
0.0
 70
     32
  0
VERTEX
  8
MY3DLAYER
10
-158.531035075911
20
214.472516016161
30
0.0
 70
     32
  0
VERTEX
  8
MY3DLAYER
10
-158.385449363041
20
214.491682738874
30
0.0
 70
     32
  0
VERTEX
  8
MY3DLAYER
10
-158.239863650171
20
214.472516016161
30
0.0
 70
     32
  0
VERTEX
  8
MY3DLAYER
10
-158.104199363041
20
214.416322028502
30
0.0
 70
     32
  0
VERTEX
  8
MY3DLAYER
10
-157.987701798624
20
214.326930303291
30
0.0
 70
     32
  0
VERTEX
  8
MY3DLAYER
10
-157.898310073412
20
214.210432738874
30
0.0
 70
     32
  0
VERTEX
  8
MY3DLAYER
10
-157.842116085754
20
214.074768451744
30
0.0
 70
     32
  0
VERTEX
  8
MY3DLAYER
10
-157.822949363041
20
213.929182738874
30
0.0
 70
     32
  0
SEQEND
  0
POLYLINE
 8
Layer0
 66
     1
70
    8
 10
0.0
 20
 0.0
 30
0.0
  0
VERTEX
  8
MY3DLAYER
10
-77.8229493630411
20
213.929182738874
30
0.0
 70
     32
  0
VERTEX
  8
MY3DLAYER
10
-77.8421160857535
20
213.783597026004
30
0.0
 70
     32
  0
VERTEX
  8
MY3DLAYER
10
-77.8983100734124
20
213.647932738874
30
0.0
 70
     32
  0
VERTEX
  8
MY3DLAYER
10
-77.9877017986237
20
213.531435174456
30
0.0
 70
     32
  0
VERTEX
  8
MY3DLAYER
10
-78.1041993630411
20
213.442043449245
30
0.0
 70
     32
  0
VERTEX
  8
MY3DLAYER
10
-78.2398636501709
20
213.385849461586
30
0.0
 70
     32
  0
VERTEX
  8
MY3DLAYER
10
-78.3854493630411
20
213.366682738874
30
0.0
 70
     32
  0
VERTEX
  8
MY3DLAYER
10
-78.5310350759113
20
213.385849461586
30
0.0
 70
     32
  0
VERTEX
  8
MY3DLAYER
10
-78.6666993630411
20
213.442043449245
30
0.0
 70
     32
  0
VERTEX
  8
MY3DLAYER
10
-78.7831969274585
20
213.531435174456
30
0.0
 70
     32
  0
VERTEX
  8
MY3DLAYER
10
-78.8725886526699
20
213.647932738874
30
0.0
 70
     32
  0
VERTEX
  8
MY3DLAYER
10
-78.9287826403287
20
213.783597026004
30
0.0
 70
     32
  0
VERTEX
  8
MY3DLAYER
10
-78.9479493630411
20
213.929182738874
30
0.0
 70
     32
  0
VERTEX
  8
MY3DLAYER
10
-78.9287826403287
20
214.074768451744
30
0.0
 70
     32
  0
VERTEX
  8
MY3DLAYER
10
-78.8725886526698
20
214.210432738874
30
0.0
 70
     32
  0
VERTEX
  8
MY3DLAYER
10
-78.7831969274585
20
214.326930303291
30
0.0
 70
     32
  0
VERTEX
  8
MY3DLAYER
10
-78.6666993630411
20
214.416322028502
30
0.0
 70
     32
  0
VERTEX
  8
MY3DLAYER
10
-78.5310350759113
20
214.472516016161
30
0.0
 70
     32
  0
VERTEX
  8
MY3DLAYER
10
-78.3854493630411
20
214.491682738874
30
0.0
 70
     32
  0
VERTEX
  8
MY3DLAYER
10
-78.2398636501709
20
214.472516016161
30
0.0
 70
     32
  0
VERTEX
  8
MY3DLAYER
10
-78.1041993630411
20
214.416322028502
30
0.0
 70
     32
  0
VERTEX
  8
MY3DLAYER
10
-77.9877017986237
20
214.326930303291
30
0.0
 70
     32
  0
VERTEX
  8
MY3DLAYER
10
-77.8983100734124
20
214.210432738874
30
0.0
 70
     32
  0
VERTEX
  8
MY3DLAYER
10
-77.8421160857535
20
214.074768451744
30
0.0
 70
     32
  0
VERTEX
  8
MY3DLAYER
10
-77.8229493630411
20
213.929182738874
30
0.0
 70
     32
  0
SEQEND
 0
ENDSEC
 0
EOF
