ISO-10303-21;
HEADER;
FILE_DESCRIPTION (( 'STEP AP203' ),
    '1' );
FILE_NAME ('BladeGuardNut.STEP',
    '2012-05-25T01:24:42',
    ( '' ),
    ( '' ),
    'SwSTEP 2.0',
    'SolidWorks 2010',
    '' );
FILE_SCHEMA (( 'CONFIG_CONTROL_DESIGN' ));
ENDSEC;

DATA;
#1 = PERSON ( 'UNSPECIFIED', 'UNSPECIFIED', 'UNSPECIFIED', ('UNSPECIFIED'), ('UNSPECIFIED'), ('UNSPECIFIED') ) ;
#2 = PRODUCT ( 'BladeGuardNut', 'BladeGuardNut', '', ( #83 ) ) ;
#3 = ADVANCED_FACE ( 'NONE', ( #242 ), #239, .T. ) ;
#4 = ADVANCED_FACE ( 'NONE', ( #244, #238 ), #120, .F. ) ;
#5 = ADVANCED_FACE ( 'NONE', ( #249 ), #236, .T. ) ;
#6 = ADVANCED_FACE ( 'NONE', ( #237 ), #173, .F. ) ;
#7 = ADVANCED_FACE ( 'NONE', ( #240, #172 ), #126, .T. ) ;
#8 = ADVANCED_FACE ( 'NONE', ( #241 ), #164, .F. ) ;
#9 = DESIGN_CONTEXT ( 'detailed design', #122, 'design' ) ;
#10 = PRODUCT_DEFINITION_SHAPE ( 'NONE', 'NONE',  #43 ) ;
#11 = EDGE_CURVE ( 'NONE', #77, #144, #158, .T. ) ;
#12 = SECURITY_CLASSIFICATION ( '', '', #72 ) ;
#13 = CC_DESIGN_DATE_AND_TIME_ASSIGNMENT ( #210, #70, ( #12 ) ) ;
#14 = CC_DESIGN_PERSON_AND_ORGANIZATION_ASSIGNMENT ( #205, #102, ( #15 ) ) ;
#15 = PRODUCT_DEFINITION_FORMATION_WITH_SPECIFIED_SOURCE ( 'ANY', '', #2, .NOT_KNOWN. ) ;
#16 = CC_DESIGN_PERSON_AND_ORGANIZATION_ASSIGNMENT ( #192, #119, ( #43 ) ) ;
#17 = AXIS2_PLACEMENT_3D ( 'NONE', #73, #124, #68 ) ;
#18 = AXIS2_PLACEMENT_3D ( 'NONE', #69, #110, #63 ) ;
#19 = CC_DESIGN_PERSON_AND_ORGANIZATION_ASSIGNMENT ( #204, #64, ( #15 ) ) ;
#20 = AXIS2_PLACEMENT_3D ( 'NONE', #61, #81, #60 ) ;
#21 = AXIS2_PLACEMENT_3D ( 'NONE', #85, #58, #142 ) ;
#22 = AXIS2_PLACEMENT_3D ( 'NONE', #114, #111, #88 ) ;
#23 = EDGE_CURVE ( 'NONE', #113, #95, #160, .T. ) ;
#24 = PRODUCT_RELATED_PRODUCT_CATEGORY ( 'detail', '', ( #2 ) ) ;
#25 = CC_DESIGN_APPROVAL ( #35, ( #43 ) ) ;
#26 = APPROVAL ( #74, 'UNSPECIFIED' ) ;
#27 = AXIS2_PLACEMENT_3D ( 'NONE', #76, #125, #82 ) ;
#28 = EDGE_CURVE ( 'NONE', #105, #103, #176, .T. ) ;
#29 = EDGE_CURVE ( 'NONE', #113, #103, #163, .T. ) ;
#30 = AXIS2_PLACEMENT_3D ( 'NONE', #147, #145, #140 ) ;
#31 = CC_DESIGN_SECURITY_CLASSIFICATION ( #12, ( #15 ) ) ;
#32 = AXIS2_PLACEMENT_3D ( 'NONE', #148, #86, #139 ) ;
#33 = EDGE_CURVE ( 'NONE', #144, #80, #161, .T. ) ;
#34 = EDGE_CURVE ( 'NONE', #77, #135, #156, .T. ) ;
#35 = APPROVAL ( #109, 'UNSPECIFIED' ) ;
#36 = AXIS2_PLACEMENT_3D ( 'NONE', #118, #121, #57 ) ;
#37 = AXIS2_PLACEMENT_3D ( 'NONE', #65, #116, #131 ) ;
#38 = CC_DESIGN_DATE_AND_TIME_ASSIGNMENT ( #196, #123, ( #43 ) ) ;
#39 = EDGE_CURVE ( 'NONE', #135, #80, #162, .T. ) ;
#40 = AXIS2_PLACEMENT_3D ( 'NONE', #78, #98, #108 ) ;
#41 = CC_DESIGN_PERSON_AND_ORGANIZATION_ASSIGNMENT ( #206, #97, ( #12 ) ) ;
#42 = AXIS2_PLACEMENT_3D ( 'NONE', #87, #129, #127 ) ;
#43 = PRODUCT_DEFINITION ( 'UNKNOWN', '', #15, #9 ) ;
#44 = EDGE_CURVE ( 'NONE', #95, #105, #159, .T. ) ;
#45 = AXIS2_PLACEMENT_3D ( 'NONE', #79, #66, #90 ) ;
#46 = AXIS2_PLACEMENT_3D ( 'NONE', #94, #89, #136 ) ;
#47 = EDGE_CURVE ( 'NONE', #80, #135, #177, .T. ) ;
#48 = EDGE_CURVE ( 'NONE', #103, #105, #178, .T. ) ;
#49 = CC_DESIGN_PERSON_AND_ORGANIZATION_ASSIGNMENT ( #184, #84, ( #2 ) ) ;
#50 = EDGE_CURVE ( 'NONE', #144, #77, #179, .T. ) ;
#51 = APPROVAL ( #71, 'UNSPECIFIED' ) ;
#52 = EDGE_CURVE ( 'NONE', #95, #113, #180, .T. ) ;
#53 = CC_DESIGN_APPROVAL ( #51, ( #12 ) ) ;
#54 = CC_DESIGN_APPROVAL ( #26, ( #15 ) ) ;
#55 = AXIS2_PLACEMENT_3D ( 'NONE', #75, #104, #133 ) ;
#56 = APPLICATION_PROTOCOL_DEFINITION ( 'international standard', 'config_control_design', 1994, #134 ) ;
#57 = DIRECTION ( 'NONE',  ( 0.0000000000000000000, 0.0000000000000000000, 1.000000000000000000 ) ) ;
#58 = DIRECTION ( 'NONE',  ( 0.0000000000000000000, 1.000000000000000000, 0.0000000000000000000 ) ) ;
#59 = APPROVAL_ROLE ( '' ) ;
#60 = DIRECTION ( 'NONE',  ( 0.0000000000000000000, 0.0000000000000000000, 1.000000000000000000 ) ) ;
#61 = CARTESIAN_POINT ( 'NONE',  ( 0.0000000000000000000, 10.00000000000000000, 0.0000000000000000000 ) ) ;
#62 = CARTESIAN_POINT ( 'NONE',  ( 0.0000000000000000000, 10.00000000000000000, -9.500000000000000000 ) ) ;
#63 = DIRECTION ( 'NONE',  ( 0.0000000000000000000, 0.0000000000000000000, -1.000000000000000000 ) ) ;
#64 = PERSON_AND_ORGANIZATION_ROLE ( 'creator' ) ;
#65 = CARTESIAN_POINT ( 'NONE',  ( 0.0000000000000000000, 10.00000000000000000, 0.0000000000000000000 ) ) ;
#66 = DIRECTION ( 'NONE',  ( -0.0000000000000000000, -1.000000000000000000, -0.0000000000000000000 ) ) ;
#67 = CARTESIAN_POINT ( 'NONE',  ( 1.163414459189985500E-015, 10.00000000000000000, 9.500000000000000000 ) ) ;
#68 = DIRECTION ( 'NONE',  ( 0.0000000000000000000, -0.0000000000000000000, 1.000000000000000000 ) ) ;
#69 = CARTESIAN_POINT ( 'NONE',  ( 0.0000000000000000000, 10.00000000000000000, 0.0000000000000000000 ) ) ;
#70 = DATE_TIME_ROLE ( 'classification_date' ) ;
#71 = APPROVAL_STATUS ( 'not_yet_approved' ) ;
#72 = SECURITY_CLASSIFICATION_LEVEL ( 'unclassified' ) ;
#73 = CARTESIAN_POINT ( 'NONE',  ( 0.0000000000000000000, 0.0000000000000000000, 0.0000000000000000000 ) ) ;
#74 = APPROVAL_STATUS ( 'not_yet_approved' ) ;
#75 = CARTESIAN_POINT ( 'NONE',  ( 0.0000000000000000000, 10.00000000000000000, 0.0000000000000000000 ) ) ;
#76 = CARTESIAN_POINT ( 'NONE',  ( 0.0000000000000000000, 0.0000000000000000000, 0.0000000000000000000 ) ) ;
#77 = VERTEX_POINT ( 'NONE', #132 ) ;
#78 = CARTESIAN_POINT ( 'NONE',  ( 0.0000000000000000000, 10.00000000000000000, 0.0000000000000000000 ) ) ;
#79 = CARTESIAN_POINT ( 'NONE',  ( 0.0000000000000000000, 10.00000000000000000, 0.0000000000000000000 ) ) ;
#80 = VERTEX_POINT ( 'NONE', #115 ) ;
#81 = DIRECTION ( 'NONE',  ( 0.0000000000000000000, 1.000000000000000000, 0.0000000000000000000 ) ) ;
#82 = DIRECTION ( 'NONE',  ( 0.0000000000000000000, 0.0000000000000000000, 1.000000000000000000 ) ) ;
#83 = MECHANICAL_CONTEXT ( 'NONE', #134, 'mechanical' ) ;
#84 = PERSON_AND_ORGANIZATION_ROLE ( 'design_owner' ) ;
#85 = CARTESIAN_POINT ( 'NONE',  ( 0.0000000000000000000, 0.0000000000000000000, 0.0000000000000000000 ) ) ;
#86 = DIRECTION ( 'NONE',  ( 0.0000000000000000000, 1.000000000000000000, 0.0000000000000000000 ) ) ;
#87 = CARTESIAN_POINT ( 'NONE',  ( 0.0000000000000000000, 0.0000000000000000000, 0.0000000000000000000 ) ) ;
#88 = DIRECTION ( 'NONE',  ( 1.000000000000000000, 0.0000000000000000000, 0.0000000000000000000 ) ) ;
#89 = DIRECTION ( 'NONE',  ( 0.0000000000000000000, 1.000000000000000000, 0.0000000000000000000 ) ) ;
#90 = DIRECTION ( 'NONE',  ( 0.0000000000000000000, 0.0000000000000000000, -1.000000000000000000 ) ) ;
#91 =( NAMED_UNIT ( * ) PLANE_ANGLE_UNIT ( ) SI_UNIT ( $, .RADIAN. ) );
#92 = CARTESIAN_POINT ( 'NONE',  ( 0.0000000000000000000, 0.0000000000000000000, 6.000000000000000900 ) ) ;
#93 =( LENGTH_UNIT ( ) NAMED_UNIT ( * ) SI_UNIT ( .MILLI., .METRE. ) );
#94 = CARTESIAN_POINT ( 'NONE',  ( 0.0000000000000000000, 10.00000000000000000, 0.0000000000000000000 ) ) ;
#95 = VERTEX_POINT ( 'NONE', #67 ) ;
#96 = CARTESIAN_POINT ( 'NONE',  ( 1.163414459189985500E-015, 0.0000000000000000000, 9.500000000000000000 ) ) ;
#97 = PERSON_AND_ORGANIZATION_ROLE ( 'classification_officer' ) ;
#98 = DIRECTION ( 'NONE',  ( 0.0000000000000000000, 1.000000000000000000, 0.0000000000000000000 ) ) ;
#99 = APPLICATION_PROTOCOL_DEFINITION ( 'international standard', 'config_control_design', 1994, #122 ) ;
#100 = APPROVAL_ROLE ( '' ) ;
#101 = CARTESIAN_POINT ( 'NONE',  ( 1.163414459189985500E-015, 10.00000000000000000, 9.500000000000000000 ) ) ;
#102 = PERSON_AND_ORGANIZATION_ROLE ( 'design_supplier' ) ;
#103 = VERTEX_POINT ( 'NONE', #107 ) ;
#104 = DIRECTION ( 'NONE',  ( 0.0000000000000000000, 1.000000000000000000, 0.0000000000000000000 ) ) ;
#105 = VERTEX_POINT ( 'NONE', #96 ) ;
#106 = CARTESIAN_POINT ( 'NONE',  ( 0.0000000000000000000, 10.00000000000000000, -9.500000000000000000 ) ) ;
#107 = CARTESIAN_POINT ( 'NONE',  ( 0.0000000000000000000, 0.0000000000000000000, -9.500000000000000000 ) ) ;
#108 = DIRECTION ( 'NONE',  ( 0.0000000000000000000, 0.0000000000000000000, 1.000000000000000000 ) ) ;
#109 = APPROVAL_STATUS ( 'not_yet_approved' ) ;
#110 = DIRECTION ( 'NONE',  ( -0.0000000000000000000, -1.000000000000000000, -0.0000000000000000000 ) ) ;
#111 = DIRECTION ( 'NONE',  ( 0.0000000000000000000, 0.0000000000000000000, 1.000000000000000000 ) ) ;
#112 = CARTESIAN_POINT ( 'NONE',  ( 7.347880794884120700E-016, 0.0000000000000000000, -6.000000000000000900 ) ) ;
#113 = VERTEX_POINT ( 'NONE', #106 ) ;
#114 = CARTESIAN_POINT ( 'NONE',  ( 0.0000000000000000000, 0.0000000000000000000, 0.0000000000000000000 ) ) ;
#115 = CARTESIAN_POINT ( 'NONE',  ( 0.0000000000000000000, 10.00000000000000000, 6.000000000000000900 ) ) ;
#116 = DIRECTION ( 'NONE',  ( 0.0000000000000000000, 1.000000000000000000, 0.0000000000000000000 ) ) ;
#117 = DIRECTION ( 'NONE',  ( -0.0000000000000000000, 1.000000000000000000, -0.0000000000000000000 ) ) ;
#118 = CARTESIAN_POINT ( 'NONE',  ( 0.0000000000000000000, 0.0000000000000000000, 0.0000000000000000000 ) ) ;
#119 = PERSON_AND_ORGANIZATION_ROLE ( 'creator' ) ;
#120 = PLANE ( 'NONE',  #17 ) ;
#121 = DIRECTION ( 'NONE',  ( -0.0000000000000000000, 1.000000000000000000, -0.0000000000000000000 ) ) ;
#122 = APPLICATION_CONTEXT ( 'configuration controlled 3d designs of mechanical parts and assemblies' ) ;
#123 = DATE_TIME_ROLE ( 'creation_date' ) ;
#124 = DIRECTION ( 'NONE',  ( 0.0000000000000000000, 1.000000000000000000, 0.0000000000000000000 ) ) ;
#125 = DIRECTION ( 'NONE',  ( -0.0000000000000000000, 1.000000000000000000, -0.0000000000000000000 ) ) ;
#126 = PLANE ( 'NONE',  #46 ) ;
#127 = DIRECTION ( 'NONE',  ( 0.0000000000000000000, 0.0000000000000000000, 1.000000000000000000 ) ) ;
#128 = CARTESIAN_POINT ( 'NONE',  ( 0.0000000000000000000, 0.0000000000000000000, 6.000000000000000900 ) ) ;
#129 = DIRECTION ( 'NONE',  ( 0.0000000000000000000, 1.000000000000000000, 0.0000000000000000000 ) ) ;
#130 = CARTESIAN_POINT ( 'NONE',  ( 7.347880794884120700E-016, 10.00000000000000000, -6.000000000000000900 ) ) ;
#131 = DIRECTION ( 'NONE',  ( 0.0000000000000000000, 0.0000000000000000000, 1.000000000000000000 ) ) ;
#132 = CARTESIAN_POINT ( 'NONE',  ( 7.347880794884120700E-016, 0.0000000000000000000, -6.000000000000000900 ) ) ;
#133 = DIRECTION ( 'NONE',  ( 0.0000000000000000000, 0.0000000000000000000, 1.000000000000000000 ) ) ;
#134 = APPLICATION_CONTEXT ( 'configuration controlled 3d designs of mechanical parts and assemblies' ) ;
#135 = VERTEX_POINT ( 'NONE', #130 ) ;
#136 = DIRECTION ( 'NONE',  ( 0.0000000000000000000, -0.0000000000000000000, 1.000000000000000000 ) ) ;
#137 = DIRECTION ( 'NONE',  ( -0.0000000000000000000, -1.000000000000000000, -0.0000000000000000000 ) ) ;
#138 = APPROVAL_ROLE ( '' ) ;
#139 = DIRECTION ( 'NONE',  ( 0.0000000000000000000, 0.0000000000000000000, 1.000000000000000000 ) ) ;
#140 = DIRECTION ( 'NONE',  ( 0.0000000000000000000, 0.0000000000000000000, 1.000000000000000000 ) ) ;
#141 = DIRECTION ( 'NONE',  ( -0.0000000000000000000, -1.000000000000000000, -0.0000000000000000000 ) ) ;
#142 = DIRECTION ( 'NONE',  ( 0.0000000000000000000, 0.0000000000000000000, 1.000000000000000000 ) ) ;
#143 =( NAMED_UNIT ( * ) SI_UNIT ( $, .STERADIAN. ) SOLID_ANGLE_UNIT ( ) );
#144 = VERTEX_POINT ( 'NONE', #128 ) ;
#145 = DIRECTION ( 'NONE',  ( 0.0000000000000000000, 1.000000000000000000, 0.0000000000000000000 ) ) ;
#146 = DIRECTION ( 'NONE',  ( -0.0000000000000000000, 1.000000000000000000, -0.0000000000000000000 ) ) ;
#147 = CARTESIAN_POINT ( 'NONE',  ( 0.0000000000000000000, 0.0000000000000000000, 0.0000000000000000000 ) ) ;
#148 = CARTESIAN_POINT ( 'NONE',  ( 0.0000000000000000000, 0.0000000000000000000, 0.0000000000000000000 ) ) ;
#149 = UNCERTAINTY_MEASURE_WITH_UNIT (LENGTH_MEASURE( 1.000000000000000100E-005 ), #93, 'distance_accuracy_value', 'NONE');
#150 = MANIFOLD_SOLID_BREP ( 'Cut-Extrude1', #243 ) ;
#151 = ADVANCED_BREP_SHAPE_REPRESENTATION ( 'BladeGuardNut', ( #150, #22 ), #181 ) ;
#152 = ORIENTED_EDGE ( 'NONE', *, *, #47, .F. ) ;
#153 = ORIENTED_EDGE ( 'NONE', *, *, #44, .F. ) ;
#154 = EDGE_LOOP ( 'NONE', ( #231, #235, #165, #157 ) ) ;
#155 = ORIENTED_EDGE ( 'NONE', *, *, #11, .T. ) ;
#156 = LINE ( 'NONE', #112, #169 ) ;
#157 = ORIENTED_EDGE ( 'NONE', *, *, #47, .T. ) ;
#158 = CIRCLE ( 'NONE', #30, 6.000000000000000900 ) ;
#159 = LINE ( 'NONE', #101, #170 ) ;
#160 = CIRCLE ( 'NONE', #37, 9.500000000000000000 ) ;
#161 = LINE ( 'NONE', #92, #171 ) ;
#162 = CIRCLE ( 'NONE', #20, 6.000000000000000900 ) ;
#163 = LINE ( 'NONE', #62, #175 ) ;
#164 = CYLINDRICAL_SURFACE ( 'NONE', #27, 6.000000000000000900 ) ;
#165 = ORIENTED_EDGE ( 'NONE', *, *, #33, .T. ) ;
#166 = ORIENTED_EDGE ( 'NONE', *, *, #48, .F. ) ;
#167 = ORIENTED_EDGE ( 'NONE', *, *, #52, .F. ) ;
#168 = ORIENTED_EDGE ( 'NONE', *, *, #28, .T. ) ;
#169 = VECTOR ( 'NONE', #146, 1000.000000000000000 ) ;
#170 = VECTOR ( 'NONE', #141, 1000.000000000000000 ) ;
#171 = VECTOR ( 'NONE', #117, 1000.000000000000000 ) ;
#172 = FACE_OUTER_BOUND ( 'NONE', #233, .T. ) ;
#173 = CYLINDRICAL_SURFACE ( 'NONE', #36, 6.000000000000000900 ) ;
#174 = ORIENTED_EDGE ( 'NONE', *, *, #44, .T. ) ;
#175 = VECTOR ( 'NONE', #137, 1000.000000000000000 ) ;
#176 = CIRCLE ( 'NONE', #21, 9.500000000000000000 ) ;
#177 = CIRCLE ( 'NONE', #40, 6.000000000000000900 ) ;
#178 = CIRCLE ( 'NONE', #42, 9.500000000000000000 ) ;
#179 = CIRCLE ( 'NONE', #32, 6.000000000000000900 ) ;
#180 = CIRCLE ( 'NONE', #55, 9.500000000000000000 ) ;
#181 =( GEOMETRIC_REPRESENTATION_CONTEXT ( 3 ) GLOBAL_UNCERTAINTY_ASSIGNED_CONTEXT ( ( #149 ) ) GLOBAL_UNIT_ASSIGNED_CONTEXT ( ( #93, #91, #143 ) ) REPRESENTATION_CONTEXT ( 'NONE', 'WORKASPACE' ) );
#182 = SHAPE_DEFINITION_REPRESENTATION ( #10, #151 ) ;
#183 = ORGANIZATION ( 'UNSPECIFIED', 'UNSPECIFIED', '' ) ;
#184 = PERSON_AND_ORGANIZATION ( #1, #183 ) ;
#185 = PERSON_AND_ORGANIZATION ( #1, #183 ) ;
#186 = APPROVAL_PERSON_ORGANIZATION ( #185, #35, #59 ) ;
#187 = COORDINATED_UNIVERSAL_TIME_OFFSET ( 6, 0, .BEHIND. ) ;
#188 = LOCAL_TIME ( 20, 24, 42.00000000000000000, #187 ) ;
#189 = CALENDAR_DATE ( 2012, 24, 5 ) ;
#190 = DATE_AND_TIME ( #189, #188 ) ;
#191 = APPROVAL_DATE_TIME ( #190, #35 ) ;
#192 = PERSON_AND_ORGANIZATION ( #1, #183 ) ;
#193 = COORDINATED_UNIVERSAL_TIME_OFFSET ( 6, 0, .BEHIND. ) ;
#194 = LOCAL_TIME ( 20, 24, 42.00000000000000000, #193 ) ;
#195 = CALENDAR_DATE ( 2012, 24, 5 ) ;
#196 = DATE_AND_TIME ( #195, #194 ) ;
#197 = PERSON_AND_ORGANIZATION ( #1, #183 ) ;
#198 = APPROVAL_PERSON_ORGANIZATION ( #197, #26, #138 ) ;
#199 = COORDINATED_UNIVERSAL_TIME_OFFSET ( 6, 0, .BEHIND. ) ;
#200 = LOCAL_TIME ( 20, 24, 42.00000000000000000, #199 ) ;
#201 = CALENDAR_DATE ( 2012, 24, 5 ) ;
#202 = DATE_AND_TIME ( #201, #200 ) ;
#203 = APPROVAL_DATE_TIME ( #202, #26 ) ;
#204 = PERSON_AND_ORGANIZATION ( #1, #183 ) ;
#205 = PERSON_AND_ORGANIZATION ( #1, #183 ) ;
#206 = PERSON_AND_ORGANIZATION ( #1, #183 ) ;
#207 = COORDINATED_UNIVERSAL_TIME_OFFSET ( 6, 0, .BEHIND. ) ;
#208 = LOCAL_TIME ( 20, 24, 42.00000000000000000, #207 ) ;
#209 = CALENDAR_DATE ( 2012, 24, 5 ) ;
#210 = DATE_AND_TIME ( #209, #208 ) ;
#211 = PERSON_AND_ORGANIZATION ( #1, #183 ) ;
#212 = APPROVAL_PERSON_ORGANIZATION ( #211, #51, #100 ) ;
#213 = COORDINATED_UNIVERSAL_TIME_OFFSET ( 6, 0, .BEHIND. ) ;
#214 = LOCAL_TIME ( 20, 24, 42.00000000000000000, #213 ) ;
#215 = CALENDAR_DATE ( 2012, 24, 5 ) ;
#216 = DATE_AND_TIME ( #215, #214 ) ;
#217 = APPROVAL_DATE_TIME ( #216, #51 ) ;
#218 = ORIENTED_EDGE ( 'NONE', *, *, #33, .F. ) ;
#219 = ORIENTED_EDGE ( 'NONE', *, *, #23, .F. ) ;
#220 = ORIENTED_EDGE ( 'NONE', *, *, #29, .F. ) ;
#221 = ORIENTED_EDGE ( 'NONE', *, *, #48, .T. ) ;
#222 = ORIENTED_EDGE ( 'NONE', *, *, #52, .T. ) ;
#223 = EDGE_LOOP ( 'NONE', ( #228, #226, #229, #218 ) ) ;
#224 = ORIENTED_EDGE ( 'NONE', *, *, #50, .T. ) ;
#225 = ORIENTED_EDGE ( 'NONE', *, *, #23, .T. ) ;
#226 = ORIENTED_EDGE ( 'NONE', *, *, #34, .T. ) ;
#227 = EDGE_LOOP ( 'NONE', ( #166, #234 ) ) ;
#228 = ORIENTED_EDGE ( 'NONE', *, *, #11, .F. ) ;
#229 = ORIENTED_EDGE ( 'NONE', *, *, #39, .T. ) ;
#230 = ORIENTED_EDGE ( 'NONE', *, *, #39, .F. ) ;
#231 = ORIENTED_EDGE ( 'NONE', *, *, #34, .F. ) ;
#232 = ORIENTED_EDGE ( 'NONE', *, *, #29, .T. ) ;
#233 = EDGE_LOOP ( 'NONE', ( #225, #222 ) ) ;
#234 = ORIENTED_EDGE ( 'NONE', *, *, #28, .F. ) ;
#235 = ORIENTED_EDGE ( 'NONE', *, *, #50, .F. ) ;
#236 = CYLINDRICAL_SURFACE ( 'NONE', #45, 9.500000000000000000 ) ;
#237 = FACE_OUTER_BOUND ( 'NONE', #154, .T. ) ;
#238 = FACE_OUTER_BOUND ( 'NONE', #227, .T. ) ;
#239 = CYLINDRICAL_SURFACE ( 'NONE', #18, 9.500000000000000000 ) ;
#240 = FACE_BOUND ( 'NONE', #246, .T. ) ;
#241 = FACE_OUTER_BOUND ( 'NONE', #223, .T. ) ;
#242 = FACE_OUTER_BOUND ( 'NONE', #248, .T. ) ;
#243 = CLOSED_SHELL ( 'NONE', ( #8, #3, #5, #7, #4, #6 ) ) ;
#244 = FACE_BOUND ( 'NONE', #245, .T. ) ;
#245 = EDGE_LOOP ( 'NONE', ( #224, #155 ) ) ;
#246 = EDGE_LOOP ( 'NONE', ( #152, #230 ) ) ;
#247 = EDGE_LOOP ( 'NONE', ( #153, #219, #232, #221 ) ) ;
#248 = EDGE_LOOP ( 'NONE', ( #167, #174, #168, #220 ) ) ;
#249 = FACE_OUTER_BOUND ( 'NONE', #247, .T. ) ;
ENDSEC;
END-ISO-10303-21;
