ISO-10303-21;
HEADER;
FILE_DESCRIPTION (( 'STEP AP203' ),
    '1' );
FILE_NAME ('BladeGuardSide.STEP',
    '2012-06-08T02:02:48',
    ( '' ),
    ( '' ),
    'SwSTEP 2.0',
    'SolidWorks 2010',
    '' );
FILE_SCHEMA (( 'CONFIG_CONTROL_DESIGN' ));
ENDSEC;

DATA;
#1 = PRODUCT_DEFINITION_SHAPE ( 'NONE', 'NONE',  #108 ) ;
#2 = DIRECTION ( 'NONE',  ( 0.0000000000000000000, -0.0000000000000000000, -1.000000000000000000 ) ) ;
#3 = DIRECTION ( 'NONE',  ( 0.0000000000000000000, -1.000000000000000000, 0.0000000000000000000 ) ) ;
#4 = PLANE ( 'NONE',  #111 ) ;
#5 = CARTESIAN_POINT ( 'NONE',  ( 0.0000000000000000000, 1.587499999999999900, -270.0000000000000000 ) ) ;
#6 = DIRECTION ( 'NONE',  ( 0.0000000000000000000, -0.0000000000000000000, -1.000000000000000000 ) ) ;
#7 = DIRECTION ( 'NONE',  ( 0.0000000000000000000, -1.000000000000000000, 0.0000000000000000000 ) ) ;
#8 = PLANE ( 'NONE',  #115 ) ;
#9 = CARTESIAN_POINT ( 'NONE',  ( 0.0000000000000000000, 1.587499999999999900, 0.0000000000000000000 ) ) ;
#10 = DIRECTION ( 'NONE',  ( 0.0000000000000000000, 0.0000000000000000000, 1.000000000000000000 ) ) ;
#11 = DIRECTION ( 'NONE',  ( -1.000000000000000000, 0.0000000000000000000, 0.0000000000000000000 ) ) ;
#12 = PLANE ( 'NONE',  #113 ) ;
#13 = CARTESIAN_POINT ( 'NONE',  ( 0.0000000000000000000, 0.0000000000000000000, -270.0000000000000000 ) ) ;
#14 = DIRECTION ( 'NONE',  ( 0.0000000000000000000, 0.0000000000000000000, -1.000000000000000000 ) ) ;
#15 = DIRECTION ( 'NONE',  ( 1.000000000000000000, -0.0000000000000000000, 0.0000000000000000000 ) ) ;
#16 = CARTESIAN_POINT ( 'NONE',  ( 0.0000000000000000000, 1.587499999999999900, -270.0000000000000000 ) ) ;
#17 = CARTESIAN_POINT ( 'NONE',  ( 65.00000000000000000, 1.587499999999999900, 0.0000000000000000000 ) ) ;
#18 = DIRECTION ( 'NONE',  ( -1.000000000000000000, -0.0000000000000000000, -0.0000000000000000000 ) ) ;
#19 = CARTESIAN_POINT ( 'NONE',  ( 0.0000000000000000000, 1.587499999999999900, -270.0000000000000000 ) ) ;
#20 = PLANE ( 'NONE',  #114 ) ;
#21 = DIRECTION ( 'NONE',  ( -0.0000000000000000000, -1.000000000000000000, -0.0000000000000000000 ) ) ;
#22 = CARTESIAN_POINT ( 'NONE',  ( 0.0000000000000000000, 1.587499999999999900, 0.0000000000000000000 ) ) ;
#23 = DIRECTION ( 'NONE',  ( -1.000000000000000000, -0.0000000000000000000, -0.0000000000000000000 ) ) ;
#24 = CARTESIAN_POINT ( 'NONE',  ( 0.0000000000000000000, 0.0000000000000000000, -270.0000000000000000 ) ) ;
#25 = DIRECTION ( 'NONE',  ( -0.0000000000000000000, -1.000000000000000000, -0.0000000000000000000 ) ) ;
#26 = PLANE ( 'NONE',  #112 ) ;
#27 = DIRECTION ( 'NONE',  ( 1.000000000000000000, 0.0000000000000000000, 0.0000000000000000000 ) ) ;
#28 = CARTESIAN_POINT ( 'NONE',  ( 0.0000000000000000000, 0.0000000000000000000, 0.0000000000000000000 ) ) ;
#29 = CARTESIAN_POINT ( 'NONE',  ( 0.0000000000000000000, 1.587499999999999900, 0.0000000000000000000 ) ) ;
#30 = DIRECTION ( 'NONE',  ( -0.0000000000000000000, -1.000000000000000000, -0.0000000000000000000 ) ) ;
#31 = CARTESIAN_POINT ( 'NONE',  ( 0.0000000000000000000, 1.587499999999999900, -270.0000000000000000 ) ) ;
#32 = DIRECTION ( 'NONE',  ( 0.0000000000000000000, 0.0000000000000000000, -1.000000000000000000 ) ) ;
#33 = CARTESIAN_POINT ( 'NONE',  ( 65.00000000000000000, 0.0000000000000000000, 0.0000000000000000000 ) ) ;
#34 = DIRECTION ( 'NONE',  ( 1.000000000000000000, 0.0000000000000000000, 0.0000000000000000000 ) ) ;
#35 = CARTESIAN_POINT ( 'NONE',  ( 0.0000000000000000000, 1.587499999999999900, 0.0000000000000000000 ) ) ;
#36 = DIRECTION ( 'NONE',  ( -0.0000000000000000000, -0.0000000000000000000, 1.000000000000000000 ) ) ;
#37 = CARTESIAN_POINT ( 'NONE',  ( 65.00000000000000000, 1.587499999999999900, 0.0000000000000000000 ) ) ;
#38 = DIRECTION ( 'NONE',  ( -0.0000000000000000000, -0.0000000000000000000, 1.000000000000000000 ) ) ;
#39 = CARTESIAN_POINT ( 'NONE',  ( 0.0000000000000000000, 1.587499999999999900, 0.0000000000000000000 ) ) ;
#40 = DIRECTION ( 'NONE',  ( -0.0000000000000000000, -1.000000000000000000, -0.0000000000000000000 ) ) ;
#41 = CARTESIAN_POINT ( 'NONE',  ( 0.0000000000000000000, 0.0000000000000000000, 0.0000000000000000000 ) ) ;
#42 = CARTESIAN_POINT ( 'NONE',  ( 65.00000000000000000, 1.587499999999999900, -270.0000000000000000 ) ) ;
#43 = DIRECTION ( 'NONE',  ( 0.0000000000000000000, 0.0000000000000000000, -1.000000000000000000 ) ) ;
#44 = CARTESIAN_POINT ( 'NONE',  ( 65.00000000000000000, 1.587499999999999900, 0.0000000000000000000 ) ) ;
#45 = CARTESIAN_POINT ( 'NONE',  ( 65.00000000000000000, 0.0000000000000000000, -270.0000000000000000 ) ) ;
#46 = VERTEX_POINT ( 'NONE', #54 ) ;
#47 = VERTEX_POINT ( 'NONE', #45 ) ;
#48 = VERTEX_POINT ( 'NONE', #81 ) ;
#49 = VERTEX_POINT ( 'NONE', #53 ) ;
#50 = VERTEX_POINT ( 'NONE', #55 ) ;
#51 = CARTESIAN_POINT ( 'NONE',  ( 0.0000000000000000000, 0.0000000000000000000, 0.0000000000000000000 ) ) ;
#52 = VERTEX_POINT ( 'NONE', #51 ) ;
#53 = CARTESIAN_POINT ( 'NONE',  ( 65.00000000000000000, 1.587499999999999900, -270.0000000000000000 ) ) ;
#54 = CARTESIAN_POINT ( 'NONE',  ( 65.00000000000000000, 1.587499999999999900, 0.0000000000000000000 ) ) ;
#55 = CARTESIAN_POINT ( 'NONE',  ( 65.00000000000000000, 0.0000000000000000000, 0.0000000000000000000 ) ) ;
#56 = CARTESIAN_POINT ( 'NONE',  ( 0.0000000000000000000, 1.587499999999999900, 0.0000000000000000000 ) ) ;
#57 = VERTEX_POINT ( 'NONE', #78 ) ;
#58 = APPROVAL_ROLE ( '' ) ;
#59 = APPROVAL_STATUS ( 'not_yet_approved' ) ;
#60 = DATE_TIME_ROLE ( 'classification_date' ) ;
#61 = PERSON_AND_ORGANIZATION_ROLE ( 'classification_officer' ) ;
#62 = SECURITY_CLASSIFICATION_LEVEL ( 'unclassified' ) ;
#63 = PERSON_AND_ORGANIZATION_ROLE ( 'design_supplier' ) ;
#64 = PERSON_AND_ORGANIZATION_ROLE ( 'creator' ) ;
#65 = APPROVAL_ROLE ( '' ) ;
#66 = APPROVAL_STATUS ( 'not_yet_approved' ) ;
#67 = DATE_TIME_ROLE ( 'creation_date' ) ;
#68 = PERSON_AND_ORGANIZATION_ROLE ( 'creator' ) ;
#69 = APPROVAL_ROLE ( '' ) ;
#70 = APPROVAL_STATUS ( 'not_yet_approved' ) ;
#71 = APPLICATION_PROTOCOL_DEFINITION ( 'international standard', 'config_control_design', 1994, #72 ) ;
#72 = APPLICATION_CONTEXT ( 'configuration controlled 3d designs of mechanical parts and assemblies' ) ;
#73 = VERTEX_POINT ( 'NONE', #56 ) ;
#74 = PERSON_AND_ORGANIZATION_ROLE ( 'design_owner' ) ;
#75 = MECHANICAL_CONTEXT ( 'NONE', #77, 'mechanical' ) ;
#76 = APPLICATION_PROTOCOL_DEFINITION ( 'international standard', 'config_control_design', 1994, #77 ) ;
#77 = APPLICATION_CONTEXT ( 'configuration controlled 3d designs of mechanical parts and assemblies' ) ;
#78 = CARTESIAN_POINT ( 'NONE',  ( 0.0000000000000000000, 0.0000000000000000000, -270.0000000000000000 ) ) ;
#79 = DIRECTION ( 'NONE',  ( 1.000000000000000000, 0.0000000000000000000, 0.0000000000000000000 ) ) ;
#80 = DIRECTION ( 'NONE',  ( 0.0000000000000000000, 0.0000000000000000000, 1.000000000000000000 ) ) ;
#81 = CARTESIAN_POINT ( 'NONE',  ( 0.0000000000000000000, 1.587499999999999900, -270.0000000000000000 ) ) ;
#82 = CARTESIAN_POINT ( 'NONE',  ( 0.0000000000000000000, 0.0000000000000000000, 0.0000000000000000000 ) ) ;
#83 =( NAMED_UNIT ( * ) SI_UNIT ( $, .STERADIAN. ) SOLID_ANGLE_UNIT ( ) );
#84 = DIRECTION ( 'NONE',  ( 1.000000000000000000, 0.0000000000000000000, -0.0000000000000000000 ) ) ;
#85 = DIRECTION ( 'NONE',  ( 0.0000000000000000000, 0.0000000000000000000, 1.000000000000000000 ) ) ;
#86 =( LENGTH_UNIT ( ) NAMED_UNIT ( * ) SI_UNIT ( .MILLI., .METRE. ) );
#87 = DIRECTION ( 'NONE',  ( -1.000000000000000000, 0.0000000000000000000, -0.0000000000000000000 ) ) ;
#88 = DIRECTION ( 'NONE',  ( 0.0000000000000000000, 0.0000000000000000000, -1.000000000000000000 ) ) ;
#89 = PLANE ( 'NONE',  #110 ) ;
#90 =( NAMED_UNIT ( * ) PLANE_ANGLE_UNIT ( ) SI_UNIT ( $, .RADIAN. ) );
#91 = DESIGN_CONTEXT ( 'detailed design', #72, 'design' ) ;
#92 = PRODUCT_RELATED_PRODUCT_CATEGORY ( 'detail', '', ( #121 ) ) ;
#93 = CC_DESIGN_SECURITY_CLASSIFICATION ( #98, ( #103 ) ) ;
#94 = CC_DESIGN_APPROVAL ( #95, ( #98 ) ) ;
#95 = APPROVAL ( #59, 'UNSPECIFIED' ) ;
#96 = CC_DESIGN_DATE_AND_TIME_ASSIGNMENT ( #164, #60, ( #98 ) ) ;
#97 = CC_DESIGN_PERSON_AND_ORGANIZATION_ASSIGNMENT ( #168, #61, ( #98 ) ) ;
#98 = SECURITY_CLASSIFICATION ( '', '', #62 ) ;
#99 = CC_DESIGN_PERSON_AND_ORGANIZATION_ASSIGNMENT ( #169, #63, ( #103 ) ) ;
#100 = CC_DESIGN_PERSON_AND_ORGANIZATION_ASSIGNMENT ( #170, #64, ( #103 ) ) ;
#101 = CC_DESIGN_APPROVAL ( #102, ( #103 ) ) ;
#102 = APPROVAL ( #66, 'UNSPECIFIED' ) ;
#103 = PRODUCT_DEFINITION_FORMATION_WITH_SPECIFIED_SOURCE ( 'ANY', '', #121, .NOT_KNOWN. ) ;
#104 = CC_DESIGN_DATE_AND_TIME_ASSIGNMENT ( #178, #67, ( #108 ) ) ;
#105 = CC_DESIGN_PERSON_AND_ORGANIZATION_ASSIGNMENT ( #182, #68, ( #108 ) ) ;
#106 = CC_DESIGN_APPROVAL ( #107, ( #108 ) ) ;
#107 = APPROVAL ( #70, 'UNSPECIFIED' ) ;
#108 = PRODUCT_DEFINITION ( 'UNKNOWN', '', #103, #91 ) ;
#109 = CC_DESIGN_PERSON_AND_ORGANIZATION_ASSIGNMENT ( #190, #74, ( #121 ) ) ;
#110 = AXIS2_PLACEMENT_3D ( 'NONE', #5, #85, #84 ) ;
#111 = AXIS2_PLACEMENT_3D ( 'NONE', #9, #88, #87 ) ;
#112 = AXIS2_PLACEMENT_3D ( 'NONE', #17, #11, #10 ) ;
#113 = AXIS2_PLACEMENT_3D ( 'NONE', #16, #7, #6 ) ;
#114 = AXIS2_PLACEMENT_3D ( 'NONE', #29, #15, #14 ) ;
#115 = AXIS2_PLACEMENT_3D ( 'NONE', #13, #3, #2 ) ;
#116 = EDGE_CURVE ( 'NONE', #46, #49, #221, .T. ) ;
#117 = EDGE_CURVE ( 'NONE', #49, #47, #218, .T. ) ;
#118 = EDGE_CURVE ( 'NONE', #57, #52, #149, .T. ) ;
#119 = EDGE_CURVE ( 'NONE', #48, #73, #144, .T. ) ;
#120 = PERSON ( 'UNSPECIFIED', 'UNSPECIFIED', 'UNSPECIFIED', ('UNSPECIFIED'), ('UNSPECIFIED'), ('UNSPECIFIED') ) ;
#121 = PRODUCT ( 'BladeGuardSide', 'BladeGuardSide', '', ( #75 ) ) ;
#122 = AXIS2_PLACEMENT_3D ( 'NONE', #82, #80, #79 ) ;
#123 = EDGE_CURVE ( 'NONE', #73, #46, #212, .T. ) ;
#124 = EDGE_CURVE ( 'NONE', #50, #47, #210, .T. ) ;
#125 = EDGE_CURVE ( 'NONE', #46, #50, #217, .T. ) ;
#126 = EDGE_CURVE ( 'NONE', #52, #50, #206, .T. ) ;
#127 = EDGE_CURVE ( 'NONE', #48, #57, #215, .T. ) ;
#128 = EDGE_CURVE ( 'NONE', #47, #57, #202, .T. ) ;
#129 = EDGE_CURVE ( 'NONE', #73, #52, #200, .T. ) ;
#130 = EDGE_CURVE ( 'NONE', #49, #48, #198, .T. ) ;
#131 = EDGE_LOOP ( 'NONE', ( #228, #153, #140, #133 ) ) ;
#132 = ORIENTED_EDGE ( 'NONE', *, *, #129, .T. ) ;
#133 = ORIENTED_EDGE ( 'NONE', *, *, #130, .T. ) ;
#134 = EDGE_LOOP ( 'NONE', ( #226, #139, #227, #151 ) ) ;
#135 = ORIENTED_EDGE ( 'NONE', *, *, #124, .F. ) ;
#136 = ORIENTED_EDGE ( 'NONE', *, *, #123, .F. ) ;
#137 = CLOSED_SHELL ( 'NONE', ( #232, #236, #233, #237, #234, #235 ) ) ;
#138 = EDGE_LOOP ( 'NONE', ( #150, #143, #145, #223 ) ) ;
#139 = ORIENTED_EDGE ( 'NONE', *, *, #127, .F. ) ;
#140 = ORIENTED_EDGE ( 'NONE', *, *, #116, .T. ) ;
#141 = ORIENTED_EDGE ( 'NONE', *, *, #118, .F. ) ;
#142 = ORIENTED_EDGE ( 'NONE', *, *, #126, .F. ) ;
#143 = ORIENTED_EDGE ( 'NONE', *, *, #129, .F. ) ;
#144 = LINE ( 'NONE', #39, #214 ) ;
#145 = ORIENTED_EDGE ( 'NONE', *, *, #119, .F. ) ;
#146 = ORIENTED_EDGE ( 'NONE', *, *, #125, .F. ) ;
#147 = ORIENTED_EDGE ( 'NONE', *, *, #124, .T. ) ;
#148 = EDGE_LOOP ( 'NONE', ( #152, #146, #136, #132 ) ) ;
#149 = LINE ( 'NONE', #41, #216 ) ;
#150 = ORIENTED_EDGE ( 'NONE', *, *, #118, .T. ) ;
#151 = ORIENTED_EDGE ( 'NONE', *, *, #117, .T. ) ;
#152 = ORIENTED_EDGE ( 'NONE', *, *, #126, .T. ) ;
#153 = ORIENTED_EDGE ( 'NONE', *, *, #123, .T. ) ;
#154 = EDGE_LOOP ( 'NONE', ( #147, #222, #224, #225 ) ) ;
#155 = ORIENTED_EDGE ( 'NONE', *, *, #128, .F. ) ;
#156 = EDGE_LOOP ( 'NONE', ( #141, #155, #135, #142 ) ) ;
#157 = APPROVAL_DATE_TIME ( #158, #95 ) ;
#158 = DATE_AND_TIME ( #159, #160 ) ;
#159 = CALENDAR_DATE ( 2012, 7, 6 ) ;
#160 = LOCAL_TIME ( 21, 2, 48.00000000000000000, #161 ) ;
#161 = COORDINATED_UNIVERSAL_TIME_OFFSET ( 6, 0, .BEHIND. ) ;
#162 = APPROVAL_PERSON_ORGANIZATION ( #163, #95, #58 ) ;
#163 = PERSON_AND_ORGANIZATION ( #120, #191 ) ;
#164 = DATE_AND_TIME ( #165, #166 ) ;
#165 = CALENDAR_DATE ( 2012, 7, 6 ) ;
#166 = LOCAL_TIME ( 21, 2, 48.00000000000000000, #167 ) ;
#167 = COORDINATED_UNIVERSAL_TIME_OFFSET ( 6, 0, .BEHIND. ) ;
#168 = PERSON_AND_ORGANIZATION ( #120, #191 ) ;
#169 = PERSON_AND_ORGANIZATION ( #120, #191 ) ;
#170 = PERSON_AND_ORGANIZATION ( #120, #191 ) ;
#171 = APPROVAL_DATE_TIME ( #172, #102 ) ;
#172 = DATE_AND_TIME ( #173, #174 ) ;
#173 = CALENDAR_DATE ( 2012, 7, 6 ) ;
#174 = LOCAL_TIME ( 21, 2, 48.00000000000000000, #175 ) ;
#175 = COORDINATED_UNIVERSAL_TIME_OFFSET ( 6, 0, .BEHIND. ) ;
#176 = APPROVAL_PERSON_ORGANIZATION ( #177, #102, #65 ) ;
#177 = PERSON_AND_ORGANIZATION ( #120, #191 ) ;
#178 = DATE_AND_TIME ( #179, #180 ) ;
#179 = CALENDAR_DATE ( 2012, 7, 6 ) ;
#180 = LOCAL_TIME ( 21, 2, 48.00000000000000000, #181 ) ;
#181 = COORDINATED_UNIVERSAL_TIME_OFFSET ( 6, 0, .BEHIND. ) ;
#182 = PERSON_AND_ORGANIZATION ( #120, #191 ) ;
#183 = APPROVAL_DATE_TIME ( #184, #107 ) ;
#184 = DATE_AND_TIME ( #185, #186 ) ;
#185 = CALENDAR_DATE ( 2012, 7, 6 ) ;
#186 = LOCAL_TIME ( 21, 2, 48.00000000000000000, #187 ) ;
#187 = COORDINATED_UNIVERSAL_TIME_OFFSET ( 6, 0, .BEHIND. ) ;
#188 = APPROVAL_PERSON_ORGANIZATION ( #189, #107, #69 ) ;
#189 = PERSON_AND_ORGANIZATION ( #120, #191 ) ;
#190 = PERSON_AND_ORGANIZATION ( #120, #191 ) ;
#191 = ORGANIZATION ( 'UNSPECIFIED', 'UNSPECIFIED', '' ) ;
#192 = SHAPE_DEFINITION_REPRESENTATION ( #1, #229 ) ;
#193 =( GEOMETRIC_REPRESENTATION_CONTEXT ( 3 ) GLOBAL_UNCERTAINTY_ASSIGNED_CONTEXT ( ( #231 ) ) GLOBAL_UNIT_ASSIGNED_CONTEXT ( ( #86, #90, #83 ) ) REPRESENTATION_CONTEXT ( 'NONE', 'WORKASPACE' ) );
#194 = FACE_OUTER_BOUND ( 'NONE', #131, .T. ) ;
#195 = FACE_OUTER_BOUND ( 'NONE', #156, .T. ) ;
#196 = FACE_OUTER_BOUND ( 'NONE', #134, .T. ) ;
#197 = VECTOR ( 'NONE', #18, 1000.000000000000000 ) ;
#198 = LINE ( 'NONE', #19, #197 ) ;
#199 = VECTOR ( 'NONE', #21, 1000.000000000000000 ) ;
#200 = LINE ( 'NONE', #22, #199 ) ;
#201 = VECTOR ( 'NONE', #23, 1000.000000000000000 ) ;
#202 = LINE ( 'NONE', #24, #201 ) ;
#203 = FACE_OUTER_BOUND ( 'NONE', #148, .T. ) ;
#204 = VECTOR ( 'NONE', #25, 1000.000000000000000 ) ;
#205 = VECTOR ( 'NONE', #27, 1000.000000000000000 ) ;
#206 = LINE ( 'NONE', #28, #205 ) ;
#207 = FACE_OUTER_BOUND ( 'NONE', #138, .T. ) ;
#208 = VECTOR ( 'NONE', #30, 1000.000000000000000 ) ;
#209 = VECTOR ( 'NONE', #32, 1000.000000000000000 ) ;
#210 = LINE ( 'NONE', #33, #209 ) ;
#211 = VECTOR ( 'NONE', #34, 1000.000000000000000 ) ;
#212 = LINE ( 'NONE', #35, #211 ) ;
#213 = FACE_OUTER_BOUND ( 'NONE', #154, .T. ) ;
#214 = VECTOR ( 'NONE', #36, 1000.000000000000000 ) ;
#215 = LINE ( 'NONE', #31, #204 ) ;
#216 = VECTOR ( 'NONE', #38, 1000.000000000000000 ) ;
#217 = LINE ( 'NONE', #37, #208 ) ;
#218 = LINE ( 'NONE', #42, #219 ) ;
#219 = VECTOR ( 'NONE', #40, 1000.000000000000000 ) ;
#220 = VECTOR ( 'NONE', #43, 1000.000000000000000 ) ;
#221 = LINE ( 'NONE', #44, #220 ) ;
#222 = ORIENTED_EDGE ( 'NONE', *, *, #117, .F. ) ;
#223 = ORIENTED_EDGE ( 'NONE', *, *, #127, .T. ) ;
#224 = ORIENTED_EDGE ( 'NONE', *, *, #116, .F. ) ;
#225 = ORIENTED_EDGE ( 'NONE', *, *, #125, .T. ) ;
#226 = ORIENTED_EDGE ( 'NONE', *, *, #128, .T. ) ;
#227 = ORIENTED_EDGE ( 'NONE', *, *, #130, .F. ) ;
#228 = ORIENTED_EDGE ( 'NONE', *, *, #119, .T. ) ;
#229 = ADVANCED_BREP_SHAPE_REPRESENTATION ( 'BladeGuardSide', ( #230, #122 ), #193 ) ;
#230 = MANIFOLD_SOLID_BREP ( 'Boss-Extrude1', #137 ) ;
#231 = UNCERTAINTY_MEASURE_WITH_UNIT (LENGTH_MEASURE( 1.000000000000000100E-005 ), #86, 'distance_accuracy_value', 'NONE');
#232 = ADVANCED_FACE ( 'NONE', ( #207 ), #20, .F. ) ;
#233 = ADVANCED_FACE ( 'NONE', ( #213 ), #26, .F. ) ;
#234 = ADVANCED_FACE ( 'NONE', ( #194 ), #12, .F. ) ;
#235 = ADVANCED_FACE ( 'NONE', ( #195 ), #8, .T. ) ;
#236 = ADVANCED_FACE ( 'NONE', ( #203 ), #4, .F. ) ;
#237 = ADVANCED_FACE ( 'NONE', ( #196 ), #89, .F. ) ;
ENDSEC;
END-ISO-10303-21;
