ISO-10303-21;
HEADER;
FILE_DESCRIPTION (( 'STEP AP203' ),
    '1' );
FILE_NAME ('ThrustWasher.STEP',
    '2012-05-21T20:04:49',
    ( '' ),
    ( '' ),
    'SwSTEP 2.0',
    'SolidWorks 2010',
    '' );
FILE_SCHEMA (( 'CONFIG_CONTROL_DESIGN' ));
ENDSEC;

DATA;
#1 = MANIFOLD_SOLID_BREP ( 'Boss-Extrude1', #164 ) ;
#2 = PERSON ( 'UNSPECIFIED', 'UNSPECIFIED', 'UNSPECIFIED', ('UNSPECIFIED'), ('UNSPECIFIED'), ('UNSPECIFIED') ) ;
#3 = PRODUCT ( 'ThrustWasher', 'ThrustWasher', '', ( #12 ) ) ;
#4 = APPROVAL_ROLE ( '' ) ;
#5 = PERSON_AND_ORGANIZATION_ROLE ( 'design_owner' ) ;
#6 = PERSON_AND_ORGANIZATION_ROLE ( 'design_supplier' ) ;
#7 = DIRECTION ( 'NONE',  ( 1.000000000000000000, 0.0000000000000000000, -0.0000000000000000000 ) ) ;
#8 = APPROVAL_STATUS ( 'not_yet_approved' ) ;
#9 = APPROVAL_STATUS ( 'not_yet_approved' ) ;
#10 = PERSON_AND_ORGANIZATION_ROLE ( 'creator' ) ;
#11 = APPLICATION_PROTOCOL_DEFINITION ( 'international standard', 'config_control_design', 1994, #62 ) ;
#12 = MECHANICAL_CONTEXT ( 'NONE', #62, 'mechanical' ) ;
#13 = DIRECTION ( 'NONE',  ( -1.000000000000000000, 0.0000000000000000000, 0.0000000000000000000 ) ) ;
#14 =( NAMED_UNIT ( * ) SI_UNIT ( $, .STERADIAN. ) SOLID_ANGLE_UNIT ( ) );
#15 = DIRECTION ( 'NONE',  ( 1.000000000000000000, 0.0000000000000000000, 0.0000000000000000000 ) ) ;
#16 = APPLICATION_CONTEXT ( 'configuration controlled 3d designs of mechanical parts and assemblies' ) ;
#17 = DATE_TIME_ROLE ( 'classification_date' ) ;
#18 = CARTESIAN_POINT ( 'NONE',  ( -7.500000000000000000, 0.0000000000000000000, 0.0000000000000000000 ) ) ;
#19 = PERSON_AND_ORGANIZATION_ROLE ( 'classification_officer' ) ;
#20 = SECURITY_CLASSIFICATION_LEVEL ( 'unclassified' ) ;
#21 = CARTESIAN_POINT ( 'NONE',  ( 0.0000000000000000000, 0.0000000000000000000, 3.000000000000000000 ) ) ;
#22 = CARTESIAN_POINT ( 'NONE',  ( -12.50000000000000000, 0.0000000000000000000, 3.000000000000000000 ) ) ;
#23 = DATE_TIME_ROLE ( 'creation_date' ) ;
#24 = CARTESIAN_POINT ( 'NONE',  ( 12.50000000000000000, 1.530808498934191500E-015, 0.0000000000000000000 ) ) ;
#25 = APPROVAL_STATUS ( 'not_yet_approved' ) ;
#26 = APPLICATION_PROTOCOL_DEFINITION ( 'international standard', 'config_control_design', 1994, #16 ) ;
#27 = APPROVAL_ROLE ( '' ) ;
#28 = DIRECTION ( 'NONE',  ( 0.0000000000000000000, 0.0000000000000000000, 1.000000000000000000 ) ) ;
#29 = DIRECTION ( 'NONE',  ( -1.000000000000000000, 0.0000000000000000000, 0.0000000000000000000 ) ) ;
#30 = CARTESIAN_POINT ( 'NONE',  ( 0.0000000000000000000, 0.0000000000000000000, 3.000000000000000000 ) ) ;
#31 = CARTESIAN_POINT ( 'NONE',  ( 0.0000000000000000000, 0.0000000000000000000, 0.0000000000000000000 ) ) ;
#32 = CARTESIAN_POINT ( 'NONE',  ( -7.500000000000000000, 0.0000000000000000000, 3.000000000000000000 ) ) ;
#33 = PERSON_AND_ORGANIZATION_ROLE ( 'creator' ) ;
#34 = DIRECTION ( 'NONE',  ( 1.000000000000000000, 0.0000000000000000000, 0.0000000000000000000 ) ) ;
#35 = PLANE ( 'NONE',  #72 ) ;
#36 = DIRECTION ( 'NONE',  ( -0.0000000000000000000, -0.0000000000000000000, -1.000000000000000000 ) ) ;
#37 = DIRECTION ( 'NONE',  ( 0.0000000000000000000, 0.0000000000000000000, 1.000000000000000000 ) ) ;
#38 = DIRECTION ( 'NONE',  ( 1.000000000000000000, 0.0000000000000000000, 0.0000000000000000000 ) ) ;
#39 = CARTESIAN_POINT ( 'NONE',  ( -12.50000000000000000, 0.0000000000000000000, 3.000000000000000000 ) ) ;
#40 = DIRECTION ( 'NONE',  ( 0.0000000000000000000, 0.0000000000000000000, 1.000000000000000000 ) ) ;
#41 = DIRECTION ( 'NONE',  ( -1.000000000000000000, 0.0000000000000000000, 0.0000000000000000000 ) ) ;
#42 = DIRECTION ( 'NONE',  ( -1.000000000000000000, 0.0000000000000000000, 0.0000000000000000000 ) ) ;
#43 = DIRECTION ( 'NONE',  ( 0.0000000000000000000, 0.0000000000000000000, 1.000000000000000000 ) ) ;
#44 =( NAMED_UNIT ( * ) PLANE_ANGLE_UNIT ( ) SI_UNIT ( $, .RADIAN. ) );
#45 = DIRECTION ( 'NONE',  ( -0.0000000000000000000, -0.0000000000000000000, -1.000000000000000000 ) ) ;
#46 =( LENGTH_UNIT ( ) NAMED_UNIT ( * ) SI_UNIT ( .MILLI., .METRE. ) );
#47 = CARTESIAN_POINT ( 'NONE',  ( 12.50000000000000000, 1.530808498934191500E-015, 3.000000000000000000 ) ) ;
#48 = CARTESIAN_POINT ( 'NONE',  ( 0.0000000000000000000, 0.0000000000000000000, 3.000000000000000000 ) ) ;
#49 = CARTESIAN_POINT ( 'NONE',  ( 7.500000000000000000, 9.184850993605147900E-016, 0.0000000000000000000 ) ) ;
#50 = DIRECTION ( 'NONE',  ( 0.0000000000000000000, 0.0000000000000000000, 1.000000000000000000 ) ) ;
#51 = DIRECTION ( 'NONE',  ( -0.0000000000000000000, -0.0000000000000000000, -1.000000000000000000 ) ) ;
#52 = CARTESIAN_POINT ( 'NONE',  ( 0.0000000000000000000, 0.0000000000000000000, 3.000000000000000000 ) ) ;
#53 = CARTESIAN_POINT ( 'NONE',  ( -12.50000000000000000, 0.0000000000000000000, 0.0000000000000000000 ) ) ;
#54 = DIRECTION ( 'NONE',  ( -0.0000000000000000000, -0.0000000000000000000, -1.000000000000000000 ) ) ;
#55 = DIRECTION ( 'NONE',  ( 0.0000000000000000000, 0.0000000000000000000, 1.000000000000000000 ) ) ;
#56 = DIRECTION ( 'NONE',  ( -0.0000000000000000000, -0.0000000000000000000, -1.000000000000000000 ) ) ;
#57 = CARTESIAN_POINT ( 'NONE',  ( 0.0000000000000000000, 0.0000000000000000000, 0.0000000000000000000 ) ) ;
#58 = PLANE ( 'NONE',  #75 ) ;
#59 = APPROVAL_ROLE ( '' ) ;
#60 = DIRECTION ( 'NONE',  ( 1.000000000000000000, 0.0000000000000000000, 0.0000000000000000000 ) ) ;
#61 = DIRECTION ( 'NONE',  ( 0.0000000000000000000, 0.0000000000000000000, 1.000000000000000000 ) ) ;
#62 = APPLICATION_CONTEXT ( 'configuration controlled 3d designs of mechanical parts and assemblies' ) ;
#63 = DIRECTION ( 'NONE',  ( 1.000000000000000000, 0.0000000000000000000, 0.0000000000000000000 ) ) ;
#64 = DIRECTION ( 'NONE',  ( 1.000000000000000000, 0.0000000000000000000, -0.0000000000000000000 ) ) ;
#65 = CARTESIAN_POINT ( 'NONE',  ( 0.0000000000000000000, 0.0000000000000000000, 0.0000000000000000000 ) ) ;
#66 = CARTESIAN_POINT ( 'NONE',  ( 7.500000000000000000, 9.184850993605147900E-016, 3.000000000000000000 ) ) ;
#67 = CARTESIAN_POINT ( 'NONE',  ( 0.0000000000000000000, 0.0000000000000000000, 0.0000000000000000000 ) ) ;
#68 = CARTESIAN_POINT ( 'NONE',  ( 0.0000000000000000000, 0.0000000000000000000, 3.000000000000000000 ) ) ;
#69 = CARTESIAN_POINT ( 'NONE',  ( 0.0000000000000000000, 0.0000000000000000000, 3.000000000000000000 ) ) ;
#70 = EDGE_CURVE ( 'NONE', #222, #228, #157, .T. ) ;
#71 = AXIS2_PLACEMENT_3D ( 'NONE', #238, #55, #63 ) ;
#72 = AXIS2_PLACEMENT_3D ( 'NONE', #21, #43, #64 ) ;
#73 = AXIS2_PLACEMENT_3D ( 'NONE', #68, #51, #29 ) ;
#74 = CC_DESIGN_SECURITY_CLASSIFICATION ( #78, ( #84 ) ) ;
#75 = AXIS2_PLACEMENT_3D ( 'NONE', #31, #28, #7 ) ;
#76 = CC_DESIGN_PERSON_AND_ORGANIZATION_ASSIGNMENT ( #183, #5, ( #3 ) ) ;
#77 = AXIS2_PLACEMENT_3D ( 'NONE', #67, #37, #34 ) ;
#78 = SECURITY_CLASSIFICATION ( '', '', #20 ) ;
#79 = CC_DESIGN_PERSON_AND_ORGANIZATION_ASSIGNMENT ( #119, #6, ( #84 ) ) ;
#80 = CC_DESIGN_PERSON_AND_ORGANIZATION_ASSIGNMENT ( #127, #33, ( #84 ) ) ;
#81 = APPROVAL ( #8, 'UNSPECIFIED' ) ;
#82 = CC_DESIGN_APPROVAL ( #83, ( #84 ) ) ;
#83 = APPROVAL ( #9, 'UNSPECIFIED' ) ;
#84 = PRODUCT_DEFINITION_FORMATION_WITH_SPECIFIED_SOURCE ( 'ANY', '', #3, .NOT_KNOWN. ) ;
#85 = CC_DESIGN_DATE_AND_TIME_ASSIGNMENT ( #168, #23, ( #91 ) ) ;
#86 = CC_DESIGN_PERSON_AND_ORGANIZATION_ASSIGNMENT ( #178, #10, ( #91 ) ) ;
#87 = CC_DESIGN_APPROVAL ( #81, ( #91 ) ) ;
#88 = AXIS2_PLACEMENT_3D ( 'NONE', #48, #45, #13 ) ;
#89 = AXIS2_PLACEMENT_3D ( 'NONE', #65, #61, #60 ) ;
#90 = AXIS2_PLACEMENT_3D ( 'NONE', #57, #50, #15 ) ;
#91 = PRODUCT_DEFINITION ( 'UNKNOWN', '', #84, #214 ) ;
#92 = AXIS2_PLACEMENT_3D ( 'NONE', #30, #36, #41 ) ;
#93 = AXIS2_PLACEMENT_3D ( 'NONE', #69, #54, #42 ) ;
#94 = AXIS2_PLACEMENT_3D ( 'NONE', #223, #230, #231 ) ;
#95 = AXIS2_PLACEMENT_3D ( 'NONE', #216, #215, #240 ) ;
#96 = EDGE_CURVE ( 'NONE', #217, #227, #156, .T. ) ;
#97 = EDGE_CURVE ( 'NONE', #226, #228, #128, .T. ) ;
#98 = EDGE_CURVE ( 'NONE', #218, #226, #150, .T. ) ;
#99 = EDGE_CURVE ( 'NONE', #229, #217, #159, .T. ) ;
#100 = EDGE_CURVE ( 'NONE', #218, #222, #149, .T. ) ;
#101 = EDGE_CURVE ( 'NONE', #221, #229, #124, .T. ) ;
#102 = EDGE_CURVE ( 'NONE', #226, #218, #145, .T. ) ;
#103 = EDGE_CURVE ( 'NONE', #221, #227, #147, .T. ) ;
#104 = EDGE_CURVE ( 'NONE', #228, #222, #142, .T. ) ;
#105 = EDGE_CURVE ( 'NONE', #227, #217, #140, .T. ) ;
#106 = EDGE_CURVE ( 'NONE', #229, #221, #138, .T. ) ;
#107 = AXIS2_PLACEMENT_3D ( 'NONE', #219, #225, #224 ) ;
#108 = AXIS2_PLACEMENT_3D ( 'NONE', #233, #234, #235 ) ;
#109 = AXIS2_PLACEMENT_3D ( 'NONE', #52, #40, #38 ) ;
#110 = APPROVAL ( #25, 'UNSPECIFIED' ) ;
#111 = CC_DESIGN_PERSON_AND_ORGANIZATION_ASSIGNMENT ( #118, #19, ( #78 ) ) ;
#112 = CC_DESIGN_DATE_AND_TIME_ASSIGNMENT ( #120, #17, ( #78 ) ) ;
#113 = CC_DESIGN_APPROVAL ( #110, ( #78 ) ) ;
#114 = PRODUCT_RELATED_PRODUCT_CATEGORY ( 'detail', '', ( #3 ) ) ;
#115 = APPROVAL_PERSON_ORGANIZATION ( #123, #110, #27 ) ;
#116 = DATE_AND_TIME ( #162, #161 ) ;
#117 = CALENDAR_DATE ( 2012, 21, 5 ) ;
#118 = PERSON_AND_ORGANIZATION ( #2, #167 ) ;
#119 = PERSON_AND_ORGANIZATION ( #2, #167 ) ;
#120 = DATE_AND_TIME ( #117, #122 ) ;
#121 = COORDINATED_UNIVERSAL_TIME_OFFSET ( 6, 0, .BEHIND. ) ;
#122 = LOCAL_TIME ( 15, 4, 49.00000000000000000, #121 ) ;
#123 = PERSON_AND_ORGANIZATION ( #2, #167 ) ;
#124 = CIRCLE ( 'NONE', #95, 12.50000000000000000 ) ;
#125 = APPROVAL_DATE_TIME ( #171, #83 ) ;
#126 = EDGE_LOOP ( 'NONE', ( #129, #211 ) ) ;
#127 = PERSON_AND_ORGANIZATION ( #2, #167 ) ;
#128 = LINE ( 'NONE', #220, #158 ) ;
#129 = ORIENTED_EDGE ( 'NONE', *, *, #70, .T. ) ;
#130 =( GEOMETRIC_REPRESENTATION_CONTEXT ( 3 ) GLOBAL_UNCERTAINTY_ASSIGNED_CONTEXT ( ( #248 ) ) GLOBAL_UNIT_ASSIGNED_CONTEXT ( ( #46, #44, #14 ) ) REPRESENTATION_CONTEXT ( 'NONE', 'WORKASPACE' ) );
#131 = FACE_BOUND ( 'NONE', #201, .T. ) ;
#132 = CYLINDRICAL_SURFACE ( 'NONE', #88, 7.500000000000000000 ) ;
#133 = CYLINDRICAL_SURFACE ( 'NONE', #73, 12.50000000000000000 ) ;
#134 = FACE_OUTER_BOUND ( 'NONE', #198, .T. ) ;
#135 = FACE_BOUND ( 'NONE', #126, .T. ) ;
#136 = CYLINDRICAL_SURFACE ( 'NONE', #92, 7.500000000000000000 ) ;
#137 = FACE_OUTER_BOUND ( 'NONE', #203, .T. ) ;
#138 = CIRCLE ( 'NONE', #109, 12.50000000000000000 ) ;
#139 = FACE_OUTER_BOUND ( 'NONE', #209, .T. ) ;
#140 = CIRCLE ( 'NONE', #90, 12.50000000000000000 ) ;
#141 = FACE_OUTER_BOUND ( 'NONE', #210, .T. ) ;
#142 = CIRCLE ( 'NONE', #77, 7.500000000000000000 ) ;
#143 = FACE_OUTER_BOUND ( 'NONE', #194, .T. ) ;
#144 = FACE_OUTER_BOUND ( 'NONE', #193, .T. ) ;
#145 = CIRCLE ( 'NONE', #71, 7.500000000000000000 ) ;
#146 = VECTOR ( 'NONE', #56, 1000.000000000000000 ) ;
#147 = LINE ( 'NONE', #22, #146 ) ;
#148 = VECTOR ( 'NONE', #239, 1000.000000000000000 ) ;
#149 = LINE ( 'NONE', #241, #148 ) ;
#150 = CIRCLE ( 'NONE', #108, 7.500000000000000000 ) ;
#151 = APPROVAL_DATE_TIME ( #181, #81 ) ;
#152 = ORIENTED_EDGE ( 'NONE', *, *, #100, .T. ) ;
#153 = ORIENTED_EDGE ( 'NONE', *, *, #101, .T. ) ;
#154 = ORIENTED_EDGE ( 'NONE', *, *, #70, .F. ) ;
#155 = CYLINDRICAL_SURFACE ( 'NONE', #93, 12.50000000000000000 ) ;
#156 = CIRCLE ( 'NONE', #94, 12.50000000000000000 ) ;
#157 = CIRCLE ( 'NONE', #107, 7.500000000000000000 ) ;
#158 = VECTOR ( 'NONE', #232, 1000.000000000000000 ) ;
#159 = LINE ( 'NONE', #236, #160 ) ;
#160 = VECTOR ( 'NONE', #237, 1000.000000000000000 ) ;
#161 = LOCAL_TIME ( 15, 4, 49.00000000000000000, #165 ) ;
#162 = CALENDAR_DATE ( 2012, 21, 5 ) ;
#163 = ORIENTED_EDGE ( 'NONE', *, *, #104, .F. ) ;
#164 = CLOSED_SHELL ( 'NONE', ( #246, #245, #247, #244, #242, #243 ) ) ;
#165 = COORDINATED_UNIVERSAL_TIME_OFFSET ( 6, 0, .BEHIND. ) ;
#166 = APPROVAL_DATE_TIME ( #116, #110 ) ;
#167 = ORGANIZATION ( 'UNSPECIFIED', 'UNSPECIFIED', '' ) ;
#168 = DATE_AND_TIME ( #182, #180 ) ;
#169 = PERSON_AND_ORGANIZATION ( #2, #167 ) ;
#170 = CALENDAR_DATE ( 2012, 21, 5 ) ;
#171 = DATE_AND_TIME ( #170, #189 ) ;
#172 = LOCAL_TIME ( 15, 4, 49.00000000000000000, #174 ) ;
#173 = APPROVAL_PERSON_ORGANIZATION ( #169, #81, #4 ) ;
#174 = COORDINATED_UNIVERSAL_TIME_OFFSET ( 6, 0, .BEHIND. ) ;
#175 = SHAPE_DEFINITION_REPRESENTATION ( #213, #249 ) ;
#176 = PERSON_AND_ORGANIZATION ( #2, #167 ) ;
#177 = CALENDAR_DATE ( 2012, 21, 5 ) ;
#178 = PERSON_AND_ORGANIZATION ( #2, #167 ) ;
#179 = COORDINATED_UNIVERSAL_TIME_OFFSET ( 6, 0, .BEHIND. ) ;
#180 = LOCAL_TIME ( 15, 4, 49.00000000000000000, #179 ) ;
#181 = DATE_AND_TIME ( #177, #172 ) ;
#182 = CALENDAR_DATE ( 2012, 21, 5 ) ;
#183 = PERSON_AND_ORGANIZATION ( #2, #167 ) ;
#184 = ORIENTED_EDGE ( 'NONE', *, *, #99, .F. ) ;
#185 = COORDINATED_UNIVERSAL_TIME_OFFSET ( 6, 0, .BEHIND. ) ;
#186 = APPROVAL_PERSON_ORGANIZATION ( #176, #83, #59 ) ;
#187 = ORIENTED_EDGE ( 'NONE', *, *, #97, .T. ) ;
#188 = ORIENTED_EDGE ( 'NONE', *, *, #98, .F. ) ;
#189 = LOCAL_TIME ( 15, 4, 49.00000000000000000, #185 ) ;
#190 = ORIENTED_EDGE ( 'NONE', *, *, #106, .T. ) ;
#191 = ORIENTED_EDGE ( 'NONE', *, *, #97, .F. ) ;
#192 = ORIENTED_EDGE ( 'NONE', *, *, #105, .F. ) ;
#193 = EDGE_LOOP ( 'NONE', ( #184, #195, #207, #196 ) ) ;
#194 = EDGE_LOOP ( 'NONE', ( #200, #212, #205, #208 ) ) ;
#195 = ORIENTED_EDGE ( 'NONE', *, *, #101, .F. ) ;
#196 = ORIENTED_EDGE ( 'NONE', *, *, #105, .T. ) ;
#197 = ORIENTED_EDGE ( 'NONE', *, *, #102, .F. ) ;
#198 = EDGE_LOOP ( 'NONE', ( #206, #187, #154, #202 ) ) ;
#199 = ORIENTED_EDGE ( 'NONE', *, *, #102, .T. ) ;
#200 = ORIENTED_EDGE ( 'NONE', *, *, #106, .F. ) ;
#201 = EDGE_LOOP ( 'NONE', ( #188, #197 ) ) ;
#202 = ORIENTED_EDGE ( 'NONE', *, *, #100, .F. ) ;
#203 = EDGE_LOOP ( 'NONE', ( #153, #190 ) ) ;
#204 = ORIENTED_EDGE ( 'NONE', *, *, #96, .F. ) ;
#205 = ORIENTED_EDGE ( 'NONE', *, *, #96, .T. ) ;
#206 = ORIENTED_EDGE ( 'NONE', *, *, #98, .T. ) ;
#207 = ORIENTED_EDGE ( 'NONE', *, *, #103, .T. ) ;
#208 = ORIENTED_EDGE ( 'NONE', *, *, #103, .F. ) ;
#209 = EDGE_LOOP ( 'NONE', ( #191, #199, #152, #163 ) ) ;
#210 = EDGE_LOOP ( 'NONE', ( #192, #204 ) ) ;
#211 = ORIENTED_EDGE ( 'NONE', *, *, #104, .T. ) ;
#212 = ORIENTED_EDGE ( 'NONE', *, *, #99, .T. ) ;
#213 = PRODUCT_DEFINITION_SHAPE ( 'NONE', 'NONE',  #91 ) ;
#214 = DESIGN_CONTEXT ( 'detailed design', #16, 'design' ) ;
#215 = DIRECTION ( 'NONE',  ( 0.0000000000000000000, 0.0000000000000000000, 1.000000000000000000 ) ) ;
#216 = CARTESIAN_POINT ( 'NONE',  ( 0.0000000000000000000, 0.0000000000000000000, 3.000000000000000000 ) ) ;
#217 = VERTEX_POINT ( 'NONE', #24 ) ;
#218 = VERTEX_POINT ( 'NONE', #32 ) ;
#219 = CARTESIAN_POINT ( 'NONE',  ( 0.0000000000000000000, 0.0000000000000000000, 0.0000000000000000000 ) ) ;
#220 = CARTESIAN_POINT ( 'NONE',  ( 7.500000000000000000, 9.184850993605147900E-016, 3.000000000000000000 ) ) ;
#221 = VERTEX_POINT ( 'NONE', #39 ) ;
#222 = VERTEX_POINT ( 'NONE', #18 ) ;
#223 = CARTESIAN_POINT ( 'NONE',  ( 0.0000000000000000000, 0.0000000000000000000, 0.0000000000000000000 ) ) ;
#224 = DIRECTION ( 'NONE',  ( 1.000000000000000000, 0.0000000000000000000, 0.0000000000000000000 ) ) ;
#225 = DIRECTION ( 'NONE',  ( 0.0000000000000000000, 0.0000000000000000000, 1.000000000000000000 ) ) ;
#226 = VERTEX_POINT ( 'NONE', #66 ) ;
#227 = VERTEX_POINT ( 'NONE', #53 ) ;
#228 = VERTEX_POINT ( 'NONE', #49 ) ;
#229 = VERTEX_POINT ( 'NONE', #47 ) ;
#230 = DIRECTION ( 'NONE',  ( 0.0000000000000000000, 0.0000000000000000000, 1.000000000000000000 ) ) ;
#231 = DIRECTION ( 'NONE',  ( 1.000000000000000000, 0.0000000000000000000, 0.0000000000000000000 ) ) ;
#232 = DIRECTION ( 'NONE',  ( -0.0000000000000000000, -0.0000000000000000000, -1.000000000000000000 ) ) ;
#233 = CARTESIAN_POINT ( 'NONE',  ( 0.0000000000000000000, 0.0000000000000000000, 3.000000000000000000 ) ) ;
#234 = DIRECTION ( 'NONE',  ( 0.0000000000000000000, 0.0000000000000000000, 1.000000000000000000 ) ) ;
#235 = DIRECTION ( 'NONE',  ( 1.000000000000000000, 0.0000000000000000000, 0.0000000000000000000 ) ) ;
#236 = CARTESIAN_POINT ( 'NONE',  ( 12.50000000000000000, 1.530808498934191500E-015, 3.000000000000000000 ) ) ;
#237 = DIRECTION ( 'NONE',  ( -0.0000000000000000000, -0.0000000000000000000, -1.000000000000000000 ) ) ;
#238 = CARTESIAN_POINT ( 'NONE',  ( 0.0000000000000000000, 0.0000000000000000000, 3.000000000000000000 ) ) ;
#239 = DIRECTION ( 'NONE',  ( -0.0000000000000000000, -0.0000000000000000000, -1.000000000000000000 ) ) ;
#240 = DIRECTION ( 'NONE',  ( 1.000000000000000000, 0.0000000000000000000, 0.0000000000000000000 ) ) ;
#241 = CARTESIAN_POINT ( 'NONE',  ( -7.500000000000000000, 0.0000000000000000000, 3.000000000000000000 ) ) ;
#242 = ADVANCED_FACE ( 'NONE', ( #144 ), #155, .T. ) ;
#243 = ADVANCED_FACE ( 'NONE', ( #139 ), #136, .F. ) ;
#244 = ADVANCED_FACE ( 'NONE', ( #141, #135 ), #58, .F. ) ;
#245 = ADVANCED_FACE ( 'NONE', ( #143 ), #133, .T. ) ;
#246 = ADVANCED_FACE ( 'NONE', ( #134 ), #132, .F. ) ;
#247 = ADVANCED_FACE ( 'NONE', ( #137, #131 ), #35, .T. ) ;
#248 = UNCERTAINTY_MEASURE_WITH_UNIT (LENGTH_MEASURE( 1.000000000000000100E-005 ), #46, 'distance_accuracy_value', 'NONE');
#249 = ADVANCED_BREP_SHAPE_REPRESENTATION ( 'ThrustWasher', ( #1, #89 ), #130 ) ;
ENDSEC;
END-ISO-10303-21;
