ISO-10303-21;
HEADER;
FILE_DESCRIPTION (( 'STEP AP203' ),
    '1' );
FILE_NAME ('InterfaceBolt.STEP',
    '2012-05-25T01:02:57',
    ( '' ),
    ( '' ),
    'SwSTEP 2.0',
    'SolidWorks 2010',
    '' );
FILE_SCHEMA (( 'CONFIG_CONTROL_DESIGN' ));
ENDSEC;

DATA;
#1 = PRODUCT ( 'InterfaceBolt', 'InterfaceBolt', '', ( #86 ) ) ;
#2 = PERSON ( 'UNSPECIFIED', 'UNSPECIFIED', 'UNSPECIFIED', ('UNSPECIFIED'), ('UNSPECIFIED'), ('UNSPECIFIED') ) ;
#3 = ADVANCED_FACE ( 'NONE', ( #196 ), #166, .T. ) ;
#4 = ADVANCED_FACE ( 'NONE', ( #198 ), #188, .T. ) ;
#5 = ADVANCED_FACE ( 'NONE', ( #189 ), #171, .T. ) ;
#6 = ADVANCED_FACE ( 'NONE', ( #251 ), #36, .T. ) ;
#7 = ADVANCED_FACE ( 'NONE', ( #165, #170 ), #74, .T. ) ;
#8 = ADVANCED_FACE ( 'NONE', ( #173 ), #60, .F. ) ;
#9 = ADVANCED_FACE ( 'NONE', ( #168 ), #177, .T. ) ;
#10 = MANIFOLD_SOLID_BREP ( 'Boss-Extrude2', #202 ) ;
#11 = ADVANCED_BREP_SHAPE_REPRESENTATION ( 'InterfaceBolt', ( #10, #153 ), #180 ) ;
#12 = UNCERTAINTY_MEASURE_WITH_UNIT (LENGTH_MEASURE( 1.000000000000000100E-005 ), #108, 'distance_accuracy_value', 'NONE');
#13 = CARTESIAN_POINT ( 'NONE',  ( 0.0000000000000000000, 57.50000000000000000, -6.000000000000000900 ) ) ;
#14 = DIRECTION ( 'NONE',  ( 0.0000000000000000000, 1.000000000000000000, 0.0000000000000000000 ) ) ;
#15 = VERTEX_POINT ( 'NONE', #76 ) ;
#16 = VERTEX_POINT ( 'NONE', #18 ) ;
#17 = CARTESIAN_POINT ( 'NONE',  ( 0.0000000000000000000, 57.50000000000000000, 0.0000000000000000000 ) ) ;
#18 = CARTESIAN_POINT ( 'NONE',  ( 0.0000000000000000000, 7.500000000000000000, -6.000000000000000900 ) ) ;
#19 = DIRECTION ( 'NONE',  ( 0.0000000000000000000, 1.000000000000000000, 0.0000000000000000000 ) ) ;
#20 = VERTEX_POINT ( 'NONE', #65 ) ;
#21 = DIRECTION ( 'NONE',  ( 0.0000000000000000000, 1.000000000000000000, 0.0000000000000000000 ) ) ;
#22 = DIRECTION ( 'NONE',  ( 0.0000000000000000000, 0.0000000000000000000, 1.000000000000000000 ) ) ;
#23 = DIRECTION ( 'NONE',  ( -0.0000000000000000000, -1.000000000000000000, -0.0000000000000000000 ) ) ;
#24 = VERTEX_POINT ( 'NONE', #57 ) ;
#25 = DIRECTION ( 'NONE',  ( 0.0000000000000000000, 0.0000000000000000000, -1.000000000000000000 ) ) ;
#26 = CARTESIAN_POINT ( 'NONE',  ( 0.0000000000000000000, 0.0000000000000000000, 0.0000000000000000000 ) ) ;
#27 = CARTESIAN_POINT ( 'NONE',  ( 0.0000000000000000000, 57.50000000000000000, 0.0000000000000000000 ) ) ;
#28 = DIRECTION ( 'NONE',  ( -0.0000000000000000000, -1.000000000000000000, -0.0000000000000000000 ) ) ;
#29 = CARTESIAN_POINT ( 'NONE',  ( 0.0000000000000000000, 57.50000000000000000, 0.0000000000000000000 ) ) ;
#30 = DIRECTION ( 'NONE',  ( 0.0000000000000000000, 0.0000000000000000000, 1.000000000000000000 ) ) ;
#31 = CARTESIAN_POINT ( 'NONE',  ( 0.0000000000000000000, 57.50000000000000000, 0.0000000000000000000 ) ) ;
#32 = CARTESIAN_POINT ( 'NONE',  ( 0.0000000000000000000, 7.500000000000000000, 0.0000000000000000000 ) ) ;
#33 = DIRECTION ( 'NONE',  ( 0.0000000000000000000, 1.000000000000000000, 0.0000000000000000000 ) ) ;
#34 = CARTESIAN_POINT ( 'NONE',  ( 0.0000000000000000000, 7.500000000000000000, 0.0000000000000000000 ) ) ;
#35 = DIRECTION ( 'NONE',  ( 0.0000000000000000000, -0.0000000000000000000, 1.000000000000000000 ) ) ;
#36 = PLANE ( 'NONE',  #140 ) ;
#37 = CARTESIAN_POINT ( 'NONE',  ( 0.0000000000000000000, 7.500000000000000000, 0.0000000000000000000 ) ) ;
#38 = CARTESIAN_POINT ( 'NONE',  ( 0.0000000000000000000, 0.0000000000000000000, 0.0000000000000000000 ) ) ;
#39 = SECURITY_CLASSIFICATION_LEVEL ( 'unclassified' ) ;
#40 = DIRECTION ( 'NONE',  ( -0.0000000000000000000, -1.000000000000000000, -0.0000000000000000000 ) ) ;
#41 = DIRECTION ( 'NONE',  ( 0.0000000000000000000, 0.0000000000000000000, 1.000000000000000000 ) ) ;
#42 = CARTESIAN_POINT ( 'NONE',  ( 0.0000000000000000000, 7.500000000000000000, 0.0000000000000000000 ) ) ;
#43 = DIRECTION ( 'NONE',  ( 0.0000000000000000000, 1.000000000000000000, 0.0000000000000000000 ) ) ;
#44 = CARTESIAN_POINT ( 'NONE',  ( 0.0000000000000000000, 0.0000000000000000000, 0.0000000000000000000 ) ) ;
#45 = CARTESIAN_POINT ( 'NONE',  ( 0.0000000000000000000, 7.500000000000000000, 0.0000000000000000000 ) ) ;
#46 = PERSON_AND_ORGANIZATION_ROLE ( 'design_owner' ) ;
#47 = CARTESIAN_POINT ( 'NONE',  ( 0.0000000000000000000, 0.0000000000000000000, -9.500000000000000000 ) ) ;
#48 = DIRECTION ( 'NONE',  ( 0.0000000000000000000, -0.0000000000000000000, 1.000000000000000000 ) ) ;
#49 = DIRECTION ( 'NONE',  ( 0.0000000000000000000, 0.0000000000000000000, -1.000000000000000000 ) ) ;
#50 = VERTEX_POINT ( 'NONE', #77 ) ;
#51 = DIRECTION ( 'NONE',  ( 0.0000000000000000000, 1.000000000000000000, 0.0000000000000000000 ) ) ;
#52 = CARTESIAN_POINT ( 'NONE',  ( 0.0000000000000000000, 57.50000000000000000, -6.000000000000000900 ) ) ;
#53 = APPROVAL_STATUS ( 'not_yet_approved' ) ;
#54 = DIRECTION ( 'NONE',  ( 0.0000000000000000000, 0.0000000000000000000, 1.000000000000000000 ) ) ;
#55 = DIRECTION ( 'NONE',  ( -0.0000000000000000000, -1.000000000000000000, -0.0000000000000000000 ) ) ;
#56 = DIRECTION ( 'NONE',  ( 0.0000000000000000000, 1.000000000000000000, 0.0000000000000000000 ) ) ;
#57 = CARTESIAN_POINT ( 'NONE',  ( 7.347880794884120700E-016, 57.50000000000000000, 6.000000000000000900 ) ) ;
#58 = DIRECTION ( 'NONE',  ( 0.0000000000000000000, -0.0000000000000000000, 1.000000000000000000 ) ) ;
#59 = DIRECTION ( 'NONE',  ( 0.0000000000000000000, 1.000000000000000000, 0.0000000000000000000 ) ) ;
#60 = PLANE ( 'NONE',  #118 ) ;
#61 = VERTEX_POINT ( 'NONE', #64 ) ;
#62 = VERTEX_POINT ( 'NONE', #47 ) ;
#63 = DIRECTION ( 'NONE',  ( 0.0000000000000000000, 0.0000000000000000000, -1.000000000000000000 ) ) ;
#64 = CARTESIAN_POINT ( 'NONE',  ( 1.163414459189985500E-015, 0.0000000000000000000, 9.500000000000000000 ) ) ;
#65 = CARTESIAN_POINT ( 'NONE',  ( 1.163414459189985500E-015, 7.500000000000000000, 9.500000000000000000 ) ) ;
#66 = DIRECTION ( 'NONE',  ( -0.0000000000000000000, -1.000000000000000000, -0.0000000000000000000 ) ) ;
#67 = APPROVAL_STATUS ( 'not_yet_approved' ) ;
#68 = DIRECTION ( 'NONE',  ( 0.0000000000000000000, 1.000000000000000000, 0.0000000000000000000 ) ) ;
#69 = DIRECTION ( 'NONE',  ( 0.0000000000000000000, 0.0000000000000000000, 1.000000000000000000 ) ) ;
#70 = DIRECTION ( 'NONE',  ( 0.0000000000000000000, 0.0000000000000000000, 1.000000000000000000 ) ) ;
#71 = DIRECTION ( 'NONE',  ( 0.0000000000000000000, 0.0000000000000000000, -1.000000000000000000 ) ) ;
#72 = DIRECTION ( 'NONE',  ( 1.000000000000000000, 0.0000000000000000000, 0.0000000000000000000 ) ) ;
#73 = VERTEX_POINT ( 'NONE', #13 ) ;
#74 = PLANE ( 'NONE',  #149 ) ;
#75 = CARTESIAN_POINT ( 'NONE',  ( 0.0000000000000000000, 57.50000000000000000, 0.0000000000000000000 ) ) ;
#76 = CARTESIAN_POINT ( 'NONE',  ( 0.0000000000000000000, 7.500000000000000000, -9.500000000000000000 ) ) ;
#77 = CARTESIAN_POINT ( 'NONE',  ( 7.347880794884120700E-016, 7.500000000000000000, 6.000000000000000900 ) ) ;
#78 = DIRECTION ( 'NONE',  ( 0.0000000000000000000, 0.0000000000000000000, 1.000000000000000000 ) ) ;
#79 = APPLICATION_CONTEXT ( 'configuration controlled 3d designs of mechanical parts and assemblies' ) ;
#80 = DIRECTION ( 'NONE',  ( -0.0000000000000000000, -1.000000000000000000, -0.0000000000000000000 ) ) ;
#81 = DIRECTION ( 'NONE',  ( 0.0000000000000000000, 1.000000000000000000, 0.0000000000000000000 ) ) ;
#82 = PERSON_AND_ORGANIZATION_ROLE ( 'creator' ) ;
#83 = CARTESIAN_POINT ( 'NONE',  ( 0.0000000000000000000, 7.500000000000000000, -9.500000000000000000 ) ) ;
#84 = DATE_TIME_ROLE ( 'classification_date' ) ;
#85 = DIRECTION ( 'NONE',  ( 0.0000000000000000000, 0.0000000000000000000, 1.000000000000000000 ) ) ;
#86 = MECHANICAL_CONTEXT ( 'NONE', #107, 'mechanical' ) ;
#87 = APPLICATION_PROTOCOL_DEFINITION ( 'international standard', 'config_control_design', 1994, #107 ) ;
#88 = APPROVAL_ROLE ( '' ) ;
#89 =( NAMED_UNIT ( * ) SI_UNIT ( $, .STERADIAN. ) SOLID_ANGLE_UNIT ( ) );
#90 = PERSON_AND_ORGANIZATION_ROLE ( 'classification_officer' ) ;
#91 = CARTESIAN_POINT ( 'NONE',  ( 0.0000000000000000000, 7.500000000000000000, 0.0000000000000000000 ) ) ;
#92 = APPROVAL_STATUS ( 'not_yet_approved' ) ;
#93 = CARTESIAN_POINT ( 'NONE',  ( 0.0000000000000000000, 7.500000000000000000, 0.0000000000000000000 ) ) ;
#94 = DIRECTION ( 'NONE',  ( -0.0000000000000000000, -1.000000000000000000, -0.0000000000000000000 ) ) ;
#95 = CARTESIAN_POINT ( 'NONE',  ( 1.163414459189985500E-015, 7.500000000000000000, 9.500000000000000000 ) ) ;
#96 = CARTESIAN_POINT ( 'NONE',  ( 7.347880794884120700E-016, 57.50000000000000000, 6.000000000000000900 ) ) ;
#97 = PERSON_AND_ORGANIZATION_ROLE ( 'creator' ) ;
#98 = PERSON_AND_ORGANIZATION_ROLE ( 'design_supplier' ) ;
#99 =( NAMED_UNIT ( * ) PLANE_ANGLE_UNIT ( ) SI_UNIT ( $, .RADIAN. ) );
#100 = DIRECTION ( 'NONE',  ( 0.0000000000000000000, 1.000000000000000000, 0.0000000000000000000 ) ) ;
#101 = DIRECTION ( 'NONE',  ( 0.0000000000000000000, 0.0000000000000000000, 1.000000000000000000 ) ) ;
#102 = APPROVAL_ROLE ( '' ) ;
#103 = DIRECTION ( 'NONE',  ( -0.0000000000000000000, -1.000000000000000000, -0.0000000000000000000 ) ) ;
#104 = APPROVAL_ROLE ( '' ) ;
#105 = CARTESIAN_POINT ( 'NONE',  ( 0.0000000000000000000, 0.0000000000000000000, 0.0000000000000000000 ) ) ;
#106 = DATE_TIME_ROLE ( 'creation_date' ) ;
#107 = APPLICATION_CONTEXT ( 'configuration controlled 3d designs of mechanical parts and assemblies' ) ;
#108 =( LENGTH_UNIT ( ) NAMED_UNIT ( * ) SI_UNIT ( .MILLI., .METRE. ) );
#109 = APPLICATION_PROTOCOL_DEFINITION ( 'international standard', 'config_control_design', 1994, #79 ) ;
#110 = AXIS2_PLACEMENT_3D ( 'NONE', #44, #81, #85 ) ;
#111 = AXIS2_PLACEMENT_3D ( 'NONE', #37, #14, #30 ) ;
#112 = PRODUCT_DEFINITION_FORMATION_WITH_SPECIFIED_SOURCE ( 'ANY', '', #1, .NOT_KNOWN. ) ;
#113 = CC_DESIGN_APPROVAL ( #150, ( #128 ) ) ;
#114 = EDGE_CURVE ( 'NONE', #20, #61, #176, .T. ) ;
#115 = EDGE_CURVE ( 'NONE', #16, #50, #172, .T. ) ;
#116 = CC_DESIGN_PERSON_AND_ORGANIZATION_ASSIGNMENT ( #203, #82, ( #128 ) ) ;
#117 = EDGE_CURVE ( 'NONE', #73, #24, #167, .T. ) ;
#118 = AXIS2_PLACEMENT_3D ( 'NONE', #38, #21, #48 ) ;
#119 = AXIS2_PLACEMENT_3D ( 'NONE', #32, #55, #25 ) ;
#120 = AXIS2_PLACEMENT_3D ( 'NONE', #45, #68, #70 ) ;
#121 = EDGE_CURVE ( 'NONE', #50, #16, #169, .T. ) ;
#122 = EDGE_CURVE ( 'NONE', #24, #50, #174, .T. ) ;
#123 = AXIS2_PLACEMENT_3D ( 'NONE', #31, #51, #41 ) ;
#124 = AXIS2_PLACEMENT_3D ( 'NONE', #27, #66, #71 ) ;
#125 = EDGE_CURVE ( 'NONE', #73, #16, #190, .T. ) ;
#126 = CC_DESIGN_APPROVAL ( #127, ( #112 ) ) ;
#127 = APPROVAL ( #92, 'UNSPECIFIED' ) ;
#128 = PRODUCT_DEFINITION ( 'UNKNOWN', '', #112, #157 ) ;
#129 = CC_DESIGN_PERSON_AND_ORGANIZATION_ASSIGNMENT ( #245, #90, ( #138 ) ) ;
#130 = CC_DESIGN_DATE_AND_TIME_ASSIGNMENT ( #240, #106, ( #128 ) ) ;
#131 = CC_DESIGN_DATE_AND_TIME_ASSIGNMENT ( #218, #84, ( #138 ) ) ;
#132 = APPROVAL ( #53, 'UNSPECIFIED' ) ;
#133 = CC_DESIGN_APPROVAL ( #132, ( #138 ) ) ;
#134 = AXIS2_PLACEMENT_3D ( 'NONE', #93, #100, #101 ) ;
#135 = CC_DESIGN_SECURITY_CLASSIFICATION ( #138, ( #112 ) ) ;
#136 = PRODUCT_RELATED_PRODUCT_CATEGORY ( 'detail', '', ( #1 ) ) ;
#137 = CC_DESIGN_PERSON_AND_ORGANIZATION_ASSIGNMENT ( #232, #97, ( #112 ) ) ;
#138 = SECURITY_CLASSIFICATION ( '', '', #39 ) ;
#139 = CC_DESIGN_PERSON_AND_ORGANIZATION_ASSIGNMENT ( #233, #98, ( #112 ) ) ;
#140 = AXIS2_PLACEMENT_3D ( 'NONE', #29, #59, #58 ) ;
#141 = AXIS2_PLACEMENT_3D ( 'NONE', #17, #19, #22 ) ;
#142 = CC_DESIGN_PERSON_AND_ORGANIZATION_ASSIGNMENT ( #183, #46, ( #1 ) ) ;
#143 = AXIS2_PLACEMENT_3D ( 'NONE', #42, #23, #63 ) ;
#144 = AXIS2_PLACEMENT_3D ( 'NONE', #75, #28, #49 ) ;
#145 = AXIS2_PLACEMENT_3D ( 'NONE', #91, #43, #78 ) ;
#146 = AXIS2_PLACEMENT_3D ( 'NONE', #26, #56, #54 ) ;
#147 = EDGE_CURVE ( 'NONE', #24, #73, #158, .T. ) ;
#148 = EDGE_CURVE ( 'NONE', #15, #20, #179, .T. ) ;
#149 = AXIS2_PLACEMENT_3D ( 'NONE', #34, #33, #35 ) ;
#150 = APPROVAL ( #67, 'UNSPECIFIED' ) ;
#151 = EDGE_CURVE ( 'NONE', #61, #62, #186, .T. ) ;
#152 = EDGE_CURVE ( 'NONE', #20, #15, #159, .T. ) ;
#153 = AXIS2_PLACEMENT_3D ( 'NONE', #105, #69, #72 ) ;
#154 = EDGE_CURVE ( 'NONE', #62, #61, #161, .T. ) ;
#155 = EDGE_CURVE ( 'NONE', #15, #62, #160, .T. ) ;
#156 = PRODUCT_DEFINITION_SHAPE ( 'NONE', 'NONE',  #128 ) ;
#157 = DESIGN_CONTEXT ( 'detailed design', #79, 'design' ) ;
#158 = CIRCLE ( 'NONE', #141, 6.000000000000000900 ) ;
#159 = CIRCLE ( 'NONE', #120, 9.500000000000000000 ) ;
#160 = LINE ( 'NONE', #83, #163 ) ;
#161 = CIRCLE ( 'NONE', #110, 9.500000000000000000 ) ;
#162 = LOCAL_TIME ( 20, 2, 57.00000000000000000, #210 ) ;
#163 = VECTOR ( 'NONE', #103, 1000.000000000000000 ) ;
#164 = VECTOR ( 'NONE', #94, 1000.000000000000000 ) ;
#165 = FACE_OUTER_BOUND ( 'NONE', #254, .T. ) ;
#166 = CYLINDRICAL_SURFACE ( 'NONE', #144, 6.000000000000000900 ) ;
#167 = CIRCLE ( 'NONE', #123, 6.000000000000000900 ) ;
#168 = FACE_OUTER_BOUND ( 'NONE', #249, .T. ) ;
#169 = CIRCLE ( 'NONE', #111, 6.000000000000000900 ) ;
#170 = FACE_BOUND ( 'NONE', #252, .T. ) ;
#171 = CYLINDRICAL_SURFACE ( 'NONE', #143, 9.500000000000000000 ) ;
#172 = CIRCLE ( 'NONE', #134, 6.000000000000000900 ) ;
#173 = FACE_OUTER_BOUND ( 'NONE', #209, .T. ) ;
#174 = LINE ( 'NONE', #96, #178 ) ;
#175 = ORIENTED_EDGE ( 'NONE', *, *, #125, .T. ) ;
#176 = LINE ( 'NONE', #95, #164 ) ;
#177 = CYLINDRICAL_SURFACE ( 'NONE', #124, 6.000000000000000900 ) ;
#178 = VECTOR ( 'NONE', #40, 1000.000000000000000 ) ;
#179 = CIRCLE ( 'NONE', #145, 9.500000000000000000 ) ;
#180 =( GEOMETRIC_REPRESENTATION_CONTEXT ( 3 ) GLOBAL_UNCERTAINTY_ASSIGNED_CONTEXT ( ( #12 ) ) GLOBAL_UNIT_ASSIGNED_CONTEXT ( ( #108, #99, #89 ) ) REPRESENTATION_CONTEXT ( 'NONE', 'WORKASPACE' ) );
#181 = SHAPE_DEFINITION_REPRESENTATION ( #156, #11 ) ;
#182 = ORGANIZATION ( 'UNSPECIFIED', 'UNSPECIFIED', '' ) ;
#183 = PERSON_AND_ORGANIZATION ( #2, #182 ) ;
#184 = APPROVAL_PERSON_ORGANIZATION ( #185, #150, #102 ) ;
#185 = PERSON_AND_ORGANIZATION ( #2, #182 ) ;
#186 = CIRCLE ( 'NONE', #146, 9.500000000000000000 ) ;
#187 = ORIENTED_EDGE ( 'NONE', *, *, #122, .T. ) ;
#188 = CYLINDRICAL_SURFACE ( 'NONE', #119, 9.500000000000000000 ) ;
#189 = FACE_OUTER_BOUND ( 'NONE', #211, .T. ) ;
#190 = LINE ( 'NONE', #52, #191 ) ;
#191 = VECTOR ( 'NONE', #80, 1000.000000000000000 ) ;
#192 = CALENDAR_DATE ( 2012, 24, 5 ) ;
#193 = ORIENTED_EDGE ( 'NONE', *, *, #115, .F. ) ;
#194 = ORIENTED_EDGE ( 'NONE', *, *, #114, .T. ) ;
#195 = ORIENTED_EDGE ( 'NONE', *, *, #154, .F. ) ;
#196 = FACE_OUTER_BOUND ( 'NONE', #199, .T. ) ;
#197 = ORIENTED_EDGE ( 'NONE', *, *, #154, .T. ) ;
#198 = FACE_OUTER_BOUND ( 'NONE', #238, .T. ) ;
#199 = EDGE_LOOP ( 'NONE', ( #215, #235, #175, #241 ) ) ;
#200 = ORIENTED_EDGE ( 'NONE', *, *, #114, .F. ) ;
#201 = ORIENTED_EDGE ( 'NONE', *, *, #117, .T. ) ;
#202 = CLOSED_SHELL ( 'NONE', ( #9, #4, #7, #5, #8, #3, #6 ) ) ;
#203 = PERSON_AND_ORGANIZATION ( #2, #182 ) ;
#204 = ORIENTED_EDGE ( 'NONE', *, *, #152, .T. ) ;
#205 = APPROVAL_PERSON_ORGANIZATION ( #239, #127, #88 ) ;
#206 = PERSON_AND_ORGANIZATION ( #2, #182 ) ;
#207 = CALENDAR_DATE ( 2012, 24, 5 ) ;
#208 = LOCAL_TIME ( 20, 2, 57.00000000000000000, #216 ) ;
#209 = EDGE_LOOP ( 'NONE', ( #195, #247 ) ) ;
#210 = COORDINATED_UNIVERSAL_TIME_OFFSET ( 6, 0, .BEHIND. ) ;
#211 = EDGE_LOOP ( 'NONE', ( #200, #234, #221, #197 ) ) ;
#212 = APPROVAL_DATE_TIME ( #243, #150 ) ;
#213 = ORIENTED_EDGE ( 'NONE', *, *, #147, .F. ) ;
#214 = ORIENTED_EDGE ( 'NONE', *, *, #147, .T. ) ;
#215 = ORIENTED_EDGE ( 'NONE', *, *, #122, .F. ) ;
#216 = COORDINATED_UNIVERSAL_TIME_OFFSET ( 6, 0, .BEHIND. ) ;
#217 = CALENDAR_DATE ( 2012, 24, 5 ) ;
#218 = DATE_AND_TIME ( #224, #228 ) ;
#219 = LOCAL_TIME ( 20, 2, 57.00000000000000000, #237 ) ;
#220 = APPROVAL_PERSON_ORGANIZATION ( #206, #132, #104 ) ;
#221 = ORIENTED_EDGE ( 'NONE', *, *, #155, .T. ) ;
#222 = LOCAL_TIME ( 20, 2, 57.00000000000000000, #244 ) ;
#223 = ORIENTED_EDGE ( 'NONE', *, *, #125, .F. ) ;
#224 = CALENDAR_DATE ( 2012, 24, 5 ) ;
#225 = ORIENTED_EDGE ( 'NONE', *, *, #151, .T. ) ;
#226 = DATE_AND_TIME ( #192, #162 ) ;
#227 = APPROVAL_DATE_TIME ( #226, #127 ) ;
#228 = LOCAL_TIME ( 20, 2, 57.00000000000000000, #231 ) ;
#229 = CALENDAR_DATE ( 2012, 24, 5 ) ;
#230 = DATE_AND_TIME ( #217, #219 ) ;
#231 = COORDINATED_UNIVERSAL_TIME_OFFSET ( 6, 0, .BEHIND. ) ;
#232 = PERSON_AND_ORGANIZATION ( #2, #182 ) ;
#233 = PERSON_AND_ORGANIZATION ( #2, #182 ) ;
#234 = ORIENTED_EDGE ( 'NONE', *, *, #148, .F. ) ;
#235 = ORIENTED_EDGE ( 'NONE', *, *, #117, .F. ) ;
#236 = APPROVAL_DATE_TIME ( #230, #132 ) ;
#237 = COORDINATED_UNIVERSAL_TIME_OFFSET ( 6, 0, .BEHIND. ) ;
#238 = EDGE_LOOP ( 'NONE', ( #253, #194, #225, #242 ) ) ;
#239 = PERSON_AND_ORGANIZATION ( #2, #182 ) ;
#240 = DATE_AND_TIME ( #207, #208 ) ;
#241 = ORIENTED_EDGE ( 'NONE', *, *, #115, .T. ) ;
#242 = ORIENTED_EDGE ( 'NONE', *, *, #155, .F. ) ;
#243 = DATE_AND_TIME ( #229, #222 ) ;
#244 = COORDINATED_UNIVERSAL_TIME_OFFSET ( 6, 0, .BEHIND. ) ;
#245 = PERSON_AND_ORGANIZATION ( #2, #182 ) ;
#246 = ORIENTED_EDGE ( 'NONE', *, *, #148, .T. ) ;
#247 = ORIENTED_EDGE ( 'NONE', *, *, #151, .F. ) ;
#248 = ORIENTED_EDGE ( 'NONE', *, *, #121, .T. ) ;
#249 = EDGE_LOOP ( 'NONE', ( #213, #187, #248, #223 ) ) ;
#250 = ORIENTED_EDGE ( 'NONE', *, *, #121, .F. ) ;
#251 = FACE_OUTER_BOUND ( 'NONE', #255, .T. ) ;
#252 = EDGE_LOOP ( 'NONE', ( #193, #250 ) ) ;
#253 = ORIENTED_EDGE ( 'NONE', *, *, #152, .F. ) ;
#254 = EDGE_LOOP ( 'NONE', ( #246, #204 ) ) ;
#255 = EDGE_LOOP ( 'NONE', ( #201, #214 ) ) ;
ENDSEC;
END-ISO-10303-21;
