ISO-10303-21;
HEADER;
FILE_DESCRIPTION (( 'STEP AP203' ),
    '1' );
FILE_NAME ('LargeNut.STEP',
    '2012-06-27T23:45:47',
    ( '' ),
    ( '' ),
    'SwSTEP 2.0',
    'SolidWorks 2010',
    '' );
FILE_SCHEMA (( 'CONFIG_CONTROL_DESIGN' ));
ENDSEC;

DATA;
#1 = AXIS2_PLACEMENT_3D ( 'NONE', #304, #295, #298 ) ;
#2 = EDGE_CURVE ( 'NONE', #252, #248, #115, .T. ) ;
#3 = EDGE_CURVE ( 'NONE', #241, #246, #135, .T. ) ;
#4 = AXIS2_PLACEMENT_3D ( 'NONE', #310, #305, #312 ) ;
#5 = EDGE_CURVE ( 'NONE', #253, #254, #111, .T. ) ;
#6 = EDGE_CURVE ( 'NONE', #250, #253, #110, .T. ) ;
#7 = EDGE_CURVE ( 'NONE', #244, #243, #98, .T. ) ;
#8 = EDGE_CURVE ( 'NONE', #252, #326, #108, .T. ) ;
#9 = EDGE_CURVE ( 'NONE', #246, #248, #95, .T. ) ;
#10 = EDGE_CURVE ( 'NONE', #254, #243, #85, .T. ) ;
#11 = EDGE_CURVE ( 'NONE', #256, #254, #91, .T. ) ;
#12 = EDGE_CURVE ( 'NONE', #253, #244, #122, .T. ) ;
#13 = EDGE_CURVE ( 'NONE', #247, #251, #164, .T. ) ;
#14 = AXIS2_PLACEMENT_3D ( 'NONE', #311, #314, #263 ) ;
#15 = AXIS2_PLACEMENT_3D ( 'NONE', #316, #319, #320 ) ;
#16 = EDGE_CURVE ( 'NONE', #257, #256, #79, .T. ) ;
#17 = EDGE_CURVE ( 'NONE', #244, #241, #77, .T. ) ;
#18 = EDGE_CURVE ( 'NONE', #242, #247, #163, .T. ) ;
#19 = AXIS2_PLACEMENT_3D ( 'NONE', #289, #292, #268 ) ;
#20 = EDGE_CURVE ( 'NONE', #245, #242, #172, .T. ) ;
#21 = EDGE_CURVE ( 'NONE', #243, #246, #171, .T. ) ;
#22 = EDGE_CURVE ( 'NONE', #326, #257, #167, .T. ) ;
#23 = EDGE_CURVE ( 'NONE', #250, #256, #169, .T. ) ;
#24 = EDGE_CURVE ( 'NONE', #248, #257, #96, .T. ) ;
#25 = EDGE_CURVE ( 'NONE', #241, #252, #99, .T. ) ;
#26 = EDGE_CURVE ( 'NONE', #242, #245, #121, .T. ) ;
#27 = EDGE_CURVE ( 'NONE', #326, #250, #165, .T. ) ;
#28 = AXIS2_PLACEMENT_3D ( 'NONE', #318, #309, #325 ) ;
#29 = AXIS2_PLACEMENT_3D ( 'NONE', #313, #278, #283 ) ;
#30 = EDGE_CURVE ( 'NONE', #245, #251, #119, .T. ) ;
#31 = AXIS2_PLACEMENT_3D ( 'NONE', #322, #280, #287 ) ;
#32 = AXIS2_PLACEMENT_3D ( 'NONE', #291, #262, #259 ) ;
#33 = AXIS2_PLACEMENT_3D ( 'NONE', #284, #264, #271 ) ;
#34 = EDGE_CURVE ( 'NONE', #251, #247, #158, .T. ) ;
#35 = AXIS2_PLACEMENT_3D ( 'NONE', #282, #327, #328 ) ;
#36 = AXIS2_PLACEMENT_3D ( 'NONE', #324, #331, #332 ) ;
#37 = AXIS2_PLACEMENT_3D ( 'NONE', #329, #330, #293 ) ;
#38 = AXIS2_PLACEMENT_3D ( 'NONE', #333, #338, #339 ) ;
#39 = CC_DESIGN_PERSON_AND_ORGANIZATION_ASSIGNMENT ( #225, #362, ( #60 ) ) ;
#40 = AXIS2_PLACEMENT_3D ( 'NONE', #356, #357, #358 ) ;
#41 = PRODUCT_DEFINITION ( 'UNKNOWN', '', #46, #58 ) ;
#42 = APPROVAL ( #365, 'UNSPECIFIED' ) ;
#43 = CC_DESIGN_APPROVAL ( #42, ( #41 ) ) ;
#44 = CC_DESIGN_PERSON_AND_ORGANIZATION_ASSIGNMENT ( #217, #367, ( #41 ) ) ;
#45 = CC_DESIGN_DATE_AND_TIME_ASSIGNMENT ( #213, #368, ( #41 ) ) ;
#46 = PRODUCT_DEFINITION_FORMATION_WITH_SPECIFIED_SOURCE ( 'ANY', '', #60, .NOT_KNOWN. ) ;
#47 = APPROVAL ( #369, 'UNSPECIFIED' ) ;
#48 = CC_DESIGN_APPROVAL ( #47, ( #46 ) ) ;
#49 = CC_DESIGN_PERSON_AND_ORGANIZATION_ASSIGNMENT ( #205, #371, ( #46 ) ) ;
#50 = CC_DESIGN_PERSON_AND_ORGANIZATION_ASSIGNMENT ( #204, #372, ( #46 ) ) ;
#51 = SECURITY_CLASSIFICATION ( '', '', #373 ) ;
#52 = CC_DESIGN_PERSON_AND_ORGANIZATION_ASSIGNMENT ( #203, #374, ( #51 ) ) ;
#53 = CC_DESIGN_DATE_AND_TIME_ASSIGNMENT ( #199, #375, ( #51 ) ) ;
#54 = APPROVAL ( #376, 'UNSPECIFIED' ) ;
#55 = CC_DESIGN_APPROVAL ( #54, ( #51 ) ) ;
#56 = CC_DESIGN_SECURITY_CLASSIFICATION ( #51, ( #46 ) ) ;
#57 = PRODUCT_RELATED_PRODUCT_CATEGORY ( 'detail', '', ( #60 ) ) ;
#58 = DESIGN_CONTEXT ( 'detailed design', #363, 'design' ) ;
#59 = PRODUCT_DEFINITION_SHAPE ( 'NONE', 'NONE',  #41 ) ;
#60 = PRODUCT ( 'LargeNut', 'LargeNut', '', ( #361 ) ) ;
#61 = PERSON ( 'UNSPECIFIED', 'UNSPECIFIED', 'UNSPECIFIED', ('UNSPECIFIED'), ('UNSPECIFIED'), ('UNSPECIFIED') ) ;
#62 = UNCERTAINTY_MEASURE_WITH_UNIT (LENGTH_MEASURE( 1.000000000000000100E-005 ), #353, 'distance_accuracy_value', 'NONE');
#63 = ADVANCED_BREP_SHAPE_REPRESENTATION ( 'LargeNut', ( #64, #40 ), #228 ) ;
#64 = MANIFOLD_SOLID_BREP ( 'Cut-Extrude1', #134 ) ;
#65 = ADVANCED_FACE ( 'NONE', ( #195 ), #78, .F. ) ;
#66 = ADVANCED_FACE ( 'NONE', ( #82, #173 ), #317, .F. ) ;
#67 = ADVANCED_FACE ( 'NONE', ( #120 ), #315, .F. ) ;
#68 = ADVANCED_FACE ( 'NONE', ( #174 ), #323, .F. ) ;
#69 = ADVANCED_FACE ( 'NONE', ( #192 ), #276, .F. ) ;
#70 = ADVANCED_FACE ( 'NONE', ( #175, #178 ), #279, .T. ) ;
#71 = ADVANCED_FACE ( 'NONE', ( #176 ), #281, .F. ) ;
#72 = ADVANCED_FACE ( 'NONE', ( #179 ), #288, .F. ) ;
#73 = ADVANCED_FACE ( 'NONE', ( #177 ), #181, .F. ) ;
#74 = ADVANCED_FACE ( 'NONE', ( #180 ), #335, .F. ) ;
#75 = ORIENTED_EDGE ( 'NONE', *, *, #34, .T. ) ;
#76 = VECTOR ( 'NONE', #308, 1000.000000000000000 ) ;
#77 = LINE ( 'NONE', #290, #230 ) ;
#78 = CYLINDRICAL_SURFACE ( 'NONE', #14, 15.00000000000000000 ) ;
#79 = LINE ( 'NONE', #273, #80 ) ;
#80 = VECTOR ( 'NONE', #300, 1000.000000000000000 ) ;
#81 = ORIENTED_EDGE ( 'NONE', *, *, #18, .F. ) ;
#82 = FACE_BOUND ( 'NONE', #125, .T. ) ;
#83 = VECTOR ( 'NONE', #260, 1000.000000000000100 ) ;
#84 = ORIENTED_EDGE ( 'NONE', *, *, #2, .F. ) ;
#85 = LINE ( 'NONE', #275, #92 ) ;
#86 = VECTOR ( 'NONE', #285, 1000.000000000000200 ) ;
#87 = ORIENTED_EDGE ( 'NONE', *, *, #5, .F. ) ;
#88 = ORIENTED_EDGE ( 'NONE', *, *, #23, .T. ) ;
#89 = VECTOR ( 'NONE', #307, 1000.000000000000100 ) ;
#90 = VECTOR ( 'NONE', #270, 1000.000000000000000 ) ;
#91 = LINE ( 'NONE', #272, #90 ) ;
#92 = VECTOR ( 'NONE', #274, 1000.000000000000100 ) ;
#93 = ORIENTED_EDGE ( 'NONE', *, *, #17, .F. ) ;
#94 = ORIENTED_EDGE ( 'NONE', *, *, #20, .F. ) ;
#95 = LINE ( 'NONE', #269, #100 ) ;
#96 = LINE ( 'NONE', #258, #83 ) ;
#97 = ORIENTED_EDGE ( 'NONE', *, *, #21, .T. ) ;
#98 = LINE ( 'NONE', #235, #194 ) ;
#99 = LINE ( 'NONE', #286, #86 ) ;
#100 = VECTOR ( 'NONE', #301, 1000.000000000000200 ) ;
#101 = ORIENTED_EDGE ( 'NONE', *, *, #16, .F. ) ;
#102 = ORIENTED_EDGE ( 'NONE', *, *, #11, .F. ) ;
#103 = ORIENTED_EDGE ( 'NONE', *, *, #10, .F. ) ;
#104 = ORIENTED_EDGE ( 'NONE', *, *, #26, .T. ) ;
#105 = ORIENTED_EDGE ( 'NONE', *, *, #27, .T. ) ;
#106 = ORIENTED_EDGE ( 'NONE', *, *, #24, .F. ) ;
#107 = VECTOR ( 'NONE', #234, 1000.000000000000000 ) ;
#108 = LINE ( 'NONE', #233, #196 ) ;
#109 = ORIENTED_EDGE ( 'NONE', *, *, #20, .T. ) ;
#110 = LINE ( 'NONE', #237, #107 ) ;
#111 = LINE ( 'NONE', #239, #118 ) ;
#112 = EDGE_LOOP ( 'NONE', ( #154, #197, #166, #157 ) ) ;
#113 = VECTOR ( 'NONE', #238, 1000.000000000000000 ) ;
#114 = VECTOR ( 'NONE', #240, 1000.000000000000000 ) ;
#115 = LINE ( 'NONE', #255, #114 ) ;
#116 = ORIENTED_EDGE ( 'NONE', *, *, #21, .F. ) ;
#117 = ORIENTED_EDGE ( 'NONE', *, *, #9, .F. ) ;
#118 = VECTOR ( 'NONE', #236, 1000.000000000000000 ) ;
#119 = LINE ( 'NONE', #321, #76 ) ;
#120 = FACE_OUTER_BOUND ( 'NONE', #132, .T. ) ;
#121 = CIRCLE ( 'NONE', #32, 15.00000000000000000 ) ;
#122 = LINE ( 'NONE', #231, #89 ) ;
#123 = EDGE_LOOP ( 'NONE', ( #156, #147, #182, #141, #140, #105 ) ) ;
#124 = EDGE_LOOP ( 'NONE', ( #142, #184 ) ) ;
#125 = EDGE_LOOP ( 'NONE', ( #104, #109 ) ) ;
#126 = EDGE_LOOP ( 'NONE', ( #94, #150, #75, #81 ) ) ;
#127 = EDGE_LOOP ( 'NONE', ( #145, #87, #161, #88 ) ) ;
#128 = EDGE_LOOP ( 'NONE', ( #144, #148, #146, #151 ) ) ;
#129 = EDGE_LOOP ( 'NONE', ( #139, #138, #137, #136 ) ) ;
#130 = EDGE_LOOP ( 'NONE', ( #152, #155, #229, #143 ) ) ;
#131 = EDGE_LOOP ( 'NONE', ( #183, #84, #149, #153 ) ) ;
#132 = EDGE_LOOP ( 'NONE', ( #97, #193, #93, #159 ) ) ;
#133 = EDGE_LOOP ( 'NONE', ( #102, #101, #106, #117, #116, #103 ) ) ;
#134 = CLOSED_SHELL ( 'NONE', ( #73, #72, #68, #67, #74, #71, #69, #70, #66, #65 ) ) ;
#135 = LINE ( 'NONE', #249, #113 ) ;
#136 = ORIENTED_EDGE ( 'NONE', *, *, #13, .T. ) ;
#137 = ORIENTED_EDGE ( 'NONE', *, *, #18, .T. ) ;
#138 = ORIENTED_EDGE ( 'NONE', *, *, #26, .F. ) ;
#139 = ORIENTED_EDGE ( 'NONE', *, *, #30, .F. ) ;
#140 = ORIENTED_EDGE ( 'NONE', *, *, #8, .T. ) ;
#141 = ORIENTED_EDGE ( 'NONE', *, *, #25, .T. ) ;
#142 = ORIENTED_EDGE ( 'NONE', *, *, #13, .F. ) ;
#143 = ORIENTED_EDGE ( 'NONE', *, *, #22, .T. ) ;
#144 = ORIENTED_EDGE ( 'NONE', *, *, #24, .T. ) ;
#145 = ORIENTED_EDGE ( 'NONE', *, *, #11, .T. ) ;
#146 = ORIENTED_EDGE ( 'NONE', *, *, #8, .F. ) ;
#147 = ORIENTED_EDGE ( 'NONE', *, *, #12, .T. ) ;
#148 = ORIENTED_EDGE ( 'NONE', *, *, #22, .F. ) ;
#149 = ORIENTED_EDGE ( 'NONE', *, *, #25, .F. ) ;
#150 = ORIENTED_EDGE ( 'NONE', *, *, #30, .T. ) ;
#151 = ORIENTED_EDGE ( 'NONE', *, *, #2, .T. ) ;
#152 = ORIENTED_EDGE ( 'NONE', *, *, #16, .T. ) ;
#153 = ORIENTED_EDGE ( 'NONE', *, *, #3, .T. ) ;
#154 = ORIENTED_EDGE ( 'NONE', *, *, #10, .T. ) ;
#155 = ORIENTED_EDGE ( 'NONE', *, *, #23, .F. ) ;
#156 = ORIENTED_EDGE ( 'NONE', *, *, #6, .T. ) ;
#157 = ORIENTED_EDGE ( 'NONE', *, *, #5, .T. ) ;
#158 = CIRCLE ( 'NONE', #4, 15.00000000000000000 ) ;
#159 = ORIENTED_EDGE ( 'NONE', *, *, #7, .T. ) ;
#160 = VECTOR ( 'NONE', #261, 1000.000000000000000 ) ;
#161 = ORIENTED_EDGE ( 'NONE', *, *, #6, .F. ) ;
#162 = VECTOR ( 'NONE', #267, 1000.000000000000000 ) ;
#163 = LINE ( 'NONE', #296, #170 ) ;
#164 = CIRCLE ( 'NONE', #19, 15.00000000000000000 ) ;
#165 = LINE ( 'NONE', #302, #162 ) ;
#166 = ORIENTED_EDGE ( 'NONE', *, *, #12, .F. ) ;
#167 = LINE ( 'NONE', #306, #168 ) ;
#168 = VECTOR ( 'NONE', #299, 1000.000000000000000 ) ;
#169 = LINE ( 'NONE', #266, #160 ) ;
#170 = VECTOR ( 'NONE', #303, 1000.000000000000000 ) ;
#171 = LINE ( 'NONE', #265, #191 ) ;
#172 = CIRCLE ( 'NONE', #1, 15.00000000000000000 ) ;
#173 = FACE_OUTER_BOUND ( 'NONE', #133, .T. ) ;
#174 = FACE_OUTER_BOUND ( 'NONE', #112, .T. ) ;
#175 = FACE_BOUND ( 'NONE', #124, .T. ) ;
#176 = FACE_OUTER_BOUND ( 'NONE', #128, .T. ) ;
#177 = FACE_OUTER_BOUND ( 'NONE', #126, .T. ) ;
#178 = FACE_OUTER_BOUND ( 'NONE', #123, .T. ) ;
#179 = FACE_OUTER_BOUND ( 'NONE', #127, .T. ) ;
#180 = FACE_OUTER_BOUND ( 'NONE', #131, .T. ) ;
#181 = CYLINDRICAL_SURFACE ( 'NONE', #37, 15.00000000000000000 ) ;
#182 = ORIENTED_EDGE ( 'NONE', *, *, #17, .T. ) ;
#183 = ORIENTED_EDGE ( 'NONE', *, *, #9, .T. ) ;
#184 = ORIENTED_EDGE ( 'NONE', *, *, #34, .F. ) ;
#185 = APPROVAL_PERSON_ORGANIZATION ( #198, #54, #377 ) ;
#186 = COORDINATED_UNIVERSAL_TIME_OFFSET ( 6, 0, .BEHIND. ) ;
#187 = LOCAL_TIME ( 18, 45, 47.00000000000000000, #186 ) ;
#188 = CALENDAR_DATE ( 2012, 27, 6 ) ;
#189 = DATE_AND_TIME ( #188, #187 ) ;
#190 = APPROVAL_DATE_TIME ( #189, #54 ) ;
#191 = VECTOR ( 'NONE', #297, 1000.000000000000000 ) ;
#192 = FACE_OUTER_BOUND ( 'NONE', #130, .T. ) ;
#193 = ORIENTED_EDGE ( 'NONE', *, *, #3, .F. ) ;
#194 = VECTOR ( 'NONE', #232, 1000.000000000000000 ) ;
#195 = FACE_OUTER_BOUND ( 'NONE', #129, .T. ) ;
#196 = VECTOR ( 'NONE', #294, 1000.000000000000100 ) ;
#197 = ORIENTED_EDGE ( 'NONE', *, *, #7, .F. ) ;
#198 = PERSON_AND_ORGANIZATION ( #61, #226 ) ;
#199 = DATE_AND_TIME ( #200, #201 ) ;
#200 = CALENDAR_DATE ( 2012, 27, 6 ) ;
#201 = LOCAL_TIME ( 18, 45, 47.00000000000000000, #202 ) ;
#202 = COORDINATED_UNIVERSAL_TIME_OFFSET ( 6, 0, .BEHIND. ) ;
#203 = PERSON_AND_ORGANIZATION ( #61, #226 ) ;
#204 = PERSON_AND_ORGANIZATION ( #61, #226 ) ;
#205 = PERSON_AND_ORGANIZATION ( #61, #226 ) ;
#206 = APPROVAL_DATE_TIME ( #208, #47 ) ;
#207 = CALENDAR_DATE ( 2012, 27, 6 ) ;
#208 = DATE_AND_TIME ( #207, #209 ) ;
#209 = LOCAL_TIME ( 18, 45, 47.00000000000000000, #210 ) ;
#210 = COORDINATED_UNIVERSAL_TIME_OFFSET ( 6, 0, .BEHIND. ) ;
#211 = APPROVAL_PERSON_ORGANIZATION ( #212, #47, #370 ) ;
#212 = PERSON_AND_ORGANIZATION ( #61, #226 ) ;
#213 = DATE_AND_TIME ( #214, #215 ) ;
#214 = CALENDAR_DATE ( 2012, 27, 6 ) ;
#215 = LOCAL_TIME ( 18, 45, 47.00000000000000000, #216 ) ;
#216 = COORDINATED_UNIVERSAL_TIME_OFFSET ( 6, 0, .BEHIND. ) ;
#217 = PERSON_AND_ORGANIZATION ( #61, #226 ) ;
#218 = APPROVAL_DATE_TIME ( #219, #42 ) ;
#219 = DATE_AND_TIME ( #220, #221 ) ;
#220 = CALENDAR_DATE ( 2012, 27, 6 ) ;
#221 = LOCAL_TIME ( 18, 45, 47.00000000000000000, #222 ) ;
#222 = COORDINATED_UNIVERSAL_TIME_OFFSET ( 6, 0, .BEHIND. ) ;
#223 = APPROVAL_PERSON_ORGANIZATION ( #224, #42, #366 ) ;
#224 = PERSON_AND_ORGANIZATION ( #61, #226 ) ;
#225 = PERSON_AND_ORGANIZATION ( #61, #226 ) ;
#226 = ORGANIZATION ( 'UNSPECIFIED', 'UNSPECIFIED', '' ) ;
#227 = SHAPE_DEFINITION_REPRESENTATION ( #59, #63 ) ;
#228 =( GEOMETRIC_REPRESENTATION_CONTEXT ( 3 ) GLOBAL_UNCERTAINTY_ASSIGNED_CONTEXT ( ( #62 ) ) GLOBAL_UNIT_ASSIGNED_CONTEXT ( ( #353, #354, #355 ) ) REPRESENTATION_CONTEXT ( 'NONE', 'WORKASPACE' ) );
#229 = ORIENTED_EDGE ( 'NONE', *, *, #27, .F. ) ;
#230 = VECTOR ( 'NONE', #277, 1000.000000000000000 ) ;
#231 = CARTESIAN_POINT ( 'NONE',  ( 26.55811238272277600, 24.00000000000000000, -1.050098389940712000E-014 ) ) ;
#232 = DIRECTION ( 'NONE',  ( -0.0000000000000000000, -1.000000000000000000, -0.0000000000000000000 ) ) ;
#233 = CARTESIAN_POINT ( 'NONE',  ( -26.55811238272279300, 24.00000000000000000, 3.393177021046032500E-015 ) ) ;
#234 = DIRECTION ( 'NONE',  ( 0.4999999999999997200, 0.0000000000000000000, -0.8660254037844388200 ) ) ;
#235 = CARTESIAN_POINT ( 'NONE',  ( 13.27905619136138600, 24.00000000000000000, -23.00000000000000700 ) ) ;
#236 = DIRECTION ( 'NONE',  ( -0.0000000000000000000, -1.000000000000000000, -0.0000000000000000000 ) ) ;
#237 = CARTESIAN_POINT ( 'NONE',  ( 13.27905619136138600, 24.00000000000000000, 23.00000000000000400 ) ) ;
#238 = DIRECTION ( 'NONE',  ( -0.0000000000000000000, -1.000000000000000000, -0.0000000000000000000 ) ) ;
#239 = CARTESIAN_POINT ( 'NONE',  ( 26.55811238272277600, 24.00000000000000000, -1.050098389940712000E-014 ) ) ;
#240 = DIRECTION ( 'NONE',  ( -0.0000000000000000000, -1.000000000000000000, -0.0000000000000000000 ) ) ;
#241 = VERTEX_POINT ( 'NONE', #341 ) ;
#242 = VERTEX_POINT ( 'NONE', #342 ) ;
#243 = VERTEX_POINT ( 'NONE', #340 ) ;
#244 = VERTEX_POINT ( 'NONE', #343 ) ;
#245 = VERTEX_POINT ( 'NONE', #336 ) ;
#246 = VERTEX_POINT ( 'NONE', #344 ) ;
#247 = VERTEX_POINT ( 'NONE', #337 ) ;
#248 = VERTEX_POINT ( 'NONE', #345 ) ;
#249 = CARTESIAN_POINT ( 'NONE',  ( -13.27905619136140200, 24.00000000000000000, -23.00000000000000700 ) ) ;
#250 = VERTEX_POINT ( 'NONE', #334 ) ;
#251 = VERTEX_POINT ( 'NONE', #346 ) ;
#252 = VERTEX_POINT ( 'NONE', #347 ) ;
#253 = VERTEX_POINT ( 'NONE', #348 ) ;
#254 = VERTEX_POINT ( 'NONE', #349 ) ;
#255 = CARTESIAN_POINT ( 'NONE',  ( -26.55811238272279300, 24.00000000000000000, 3.393177021046032500E-015 ) ) ;
#256 = VERTEX_POINT ( 'NONE', #350 ) ;
#257 = VERTEX_POINT ( 'NONE', #351 ) ;
#258 = CARTESIAN_POINT ( 'NONE',  ( -26.55811238272279300, 0.0000000000000000000, 3.393177021046032500E-015 ) ) ;
#259 = DIRECTION ( 'NONE',  ( 0.0000000000000000000, 0.0000000000000000000, 1.000000000000000000 ) ) ;
#260 = DIRECTION ( 'NONE',  ( 0.5000000000000001100, 0.0000000000000000000, 0.8660254037844386000 ) ) ;
#261 = DIRECTION ( 'NONE',  ( -0.0000000000000000000, -1.000000000000000000, -0.0000000000000000000 ) ) ;
#262 = DIRECTION ( 'NONE',  ( 0.0000000000000000000, 1.000000000000000000, 0.0000000000000000000 ) ) ;
#263 = DIRECTION ( 'NONE',  ( 0.0000000000000000000, 0.0000000000000000000, 1.000000000000000000 ) ) ;
#264 = DIRECTION ( 'NONE',  ( 0.0000000000000000000, 1.000000000000000000, 0.0000000000000000000 ) ) ;
#265 = CARTESIAN_POINT ( 'NONE',  ( 13.27905619136138600, 0.0000000000000000000, -23.00000000000000700 ) ) ;
#266 = CARTESIAN_POINT ( 'NONE',  ( 13.27905619136138600, 24.00000000000000000, 23.00000000000000400 ) ) ;
#267 = DIRECTION ( 'NONE',  ( 1.000000000000000000, 0.0000000000000000000, 1.306360520641008200E-016 ) ) ;
#268 = DIRECTION ( 'NONE',  ( 0.0000000000000000000, 0.0000000000000000000, 1.000000000000000000 ) ) ;
#269 = CARTESIAN_POINT ( 'NONE',  ( -13.27905619136140200, 0.0000000000000000000, -23.00000000000000700 ) ) ;
#270 = DIRECTION ( 'NONE',  ( 0.4999999999999997200, 0.0000000000000000000, -0.8660254037844388200 ) ) ;
#271 = DIRECTION ( 'NONE',  ( 0.0000000000000000000, -0.0000000000000000000, 1.000000000000000000 ) ) ;
#272 = CARTESIAN_POINT ( 'NONE',  ( 13.27905619136138600, 0.0000000000000000000, 23.00000000000000400 ) ) ;
#273 = CARTESIAN_POINT ( 'NONE',  ( -13.27905619136140000, 0.0000000000000000000, 23.00000000000000000 ) ) ;
#274 = DIRECTION ( 'NONE',  ( -0.4999999999999999400, 0.0000000000000000000, -0.8660254037844386000 ) ) ;
#275 = CARTESIAN_POINT ( 'NONE',  ( 26.55811238272277600, 0.0000000000000000000, -1.050098389940712000E-014 ) ) ;
#276 = PLANE ( 'NONE',  #31 ) ;
#277 = DIRECTION ( 'NONE',  ( -1.000000000000000000, 0.0000000000000000000, 0.0000000000000000000 ) ) ;
#278 = DIRECTION ( 'NONE',  ( -0.8660254037844387100, 0.0000000000000000000, 0.5000000000000000000 ) ) ;
#279 = PLANE ( 'NONE',  #33 ) ;
#280 = DIRECTION ( 'NONE',  ( 1.306360520641008200E-016, 0.0000000000000000000, -1.000000000000000000 ) ) ;
#281 = PLANE ( 'NONE',  #35 ) ;
#282 = CARTESIAN_POINT ( 'NONE',  ( -26.55811238272279300, 24.00000000000000000, 3.393177021046032500E-015 ) ) ;
#283 = DIRECTION ( 'NONE',  ( 0.4999999999999999400, 0.0000000000000000000, 0.8660254037844386000 ) ) ;
#284 = CARTESIAN_POINT ( 'NONE',  ( 26.55811238272277200, 24.00000000000000000, -1.413335744594067200E-014 ) ) ;
#285 = DIRECTION ( 'NONE',  ( -0.4999999999999997800, 0.0000000000000000000, 0.8660254037844387100 ) ) ;
#286 = CARTESIAN_POINT ( 'NONE',  ( -13.27905619136140200, 24.00000000000000000, -23.00000000000000700 ) ) ;
#287 = DIRECTION ( 'NONE',  ( -1.000000000000000000, 0.0000000000000000000, -1.306360520641008200E-016 ) ) ;
#288 = PLANE ( 'NONE',  #36 ) ;
#289 = CARTESIAN_POINT ( 'NONE',  ( 0.0000000000000000000, 24.00000000000000000, 0.0000000000000000000 ) ) ;
#290 = CARTESIAN_POINT ( 'NONE',  ( 13.27905619136138600, 24.00000000000000000, -23.00000000000000700 ) ) ;
#291 = CARTESIAN_POINT ( 'NONE',  ( 0.0000000000000000000, 0.0000000000000000000, 0.0000000000000000000 ) ) ;
#292 = DIRECTION ( 'NONE',  ( 0.0000000000000000000, 1.000000000000000000, 0.0000000000000000000 ) ) ;
#293 = DIRECTION ( 'NONE',  ( 0.0000000000000000000, 0.0000000000000000000, 1.000000000000000000 ) ) ;
#294 = DIRECTION ( 'NONE',  ( 0.5000000000000001100, 0.0000000000000000000, 0.8660254037844386000 ) ) ;
#295 = DIRECTION ( 'NONE',  ( 0.0000000000000000000, 1.000000000000000000, 0.0000000000000000000 ) ) ;
#296 = CARTESIAN_POINT ( 'NONE',  ( 0.0000000000000000000, 0.0000000000000000000, 15.00000000000000000 ) ) ;
#297 = DIRECTION ( 'NONE',  ( -1.000000000000000000, 0.0000000000000000000, 0.0000000000000000000 ) ) ;
#298 = DIRECTION ( 'NONE',  ( 0.0000000000000000000, 0.0000000000000000000, 1.000000000000000000 ) ) ;
#299 = DIRECTION ( 'NONE',  ( -0.0000000000000000000, -1.000000000000000000, -0.0000000000000000000 ) ) ;
#300 = DIRECTION ( 'NONE',  ( 1.000000000000000000, 0.0000000000000000000, 1.306360520641008200E-016 ) ) ;
#301 = DIRECTION ( 'NONE',  ( -0.4999999999999997800, 0.0000000000000000000, 0.8660254037844387100 ) ) ;
#302 = CARTESIAN_POINT ( 'NONE',  ( -13.27905619136140000, 24.00000000000000000, 23.00000000000000000 ) ) ;
#303 = DIRECTION ( 'NONE',  ( -0.0000000000000000000, 1.000000000000000000, -0.0000000000000000000 ) ) ;
#304 = CARTESIAN_POINT ( 'NONE',  ( 0.0000000000000000000, 0.0000000000000000000, 0.0000000000000000000 ) ) ;
#305 = DIRECTION ( 'NONE',  ( 0.0000000000000000000, 1.000000000000000000, 0.0000000000000000000 ) ) ;
#306 = CARTESIAN_POINT ( 'NONE',  ( -13.27905619136140000, 24.00000000000000000, 23.00000000000000000 ) ) ;
#307 = DIRECTION ( 'NONE',  ( -0.4999999999999999400, 0.0000000000000000000, -0.8660254037844386000 ) ) ;
#308 = DIRECTION ( 'NONE',  ( -0.0000000000000000000, 1.000000000000000000, -0.0000000000000000000 ) ) ;
#309 = DIRECTION ( 'NONE',  ( 0.0000000000000000000, -0.0000000000000000000, 1.000000000000000000 ) ) ;
#310 = CARTESIAN_POINT ( 'NONE',  ( 0.0000000000000000000, 24.00000000000000000, 0.0000000000000000000 ) ) ;
#311 = CARTESIAN_POINT ( 'NONE',  ( 0.0000000000000000000, 0.0000000000000000000, 0.0000000000000000000 ) ) ;
#312 = DIRECTION ( 'NONE',  ( 0.0000000000000000000, 0.0000000000000000000, 1.000000000000000000 ) ) ;
#313 = CARTESIAN_POINT ( 'NONE',  ( 26.55811238272277600, 24.00000000000000000, -1.050098389940712000E-014 ) ) ;
#314 = DIRECTION ( 'NONE',  ( -0.0000000000000000000, 1.000000000000000000, -0.0000000000000000000 ) ) ;
#315 = PLANE ( 'NONE',  #28 ) ;
#316 = CARTESIAN_POINT ( 'NONE',  ( 26.55811238272277200, 0.0000000000000000000, -1.413335744594067200E-014 ) ) ;
#317 = PLANE ( 'NONE',  #15 ) ;
#318 = CARTESIAN_POINT ( 'NONE',  ( 13.27905619136138600, 24.00000000000000000, -23.00000000000000700 ) ) ;
#319 = DIRECTION ( 'NONE',  ( 0.0000000000000000000, 1.000000000000000000, 0.0000000000000000000 ) ) ;
#320 = DIRECTION ( 'NONE',  ( 0.0000000000000000000, -0.0000000000000000000, 1.000000000000000000 ) ) ;
#321 = CARTESIAN_POINT ( 'NONE',  ( 1.836970198721029600E-015, 0.0000000000000000000, -15.00000000000000000 ) ) ;
#322 = CARTESIAN_POINT ( 'NONE',  ( -13.27905619136140000, 24.00000000000000000, 23.00000000000000000 ) ) ;
#323 = PLANE ( 'NONE',  #29 ) ;
#324 = CARTESIAN_POINT ( 'NONE',  ( 13.27905619136138600, 24.00000000000000000, 23.00000000000000400 ) ) ;
#325 = DIRECTION ( 'NONE',  ( 1.000000000000000000, 0.0000000000000000000, -0.0000000000000000000 ) ) ;
#326 = VERTEX_POINT ( 'NONE', #352 ) ;
#327 = DIRECTION ( 'NONE',  ( 0.8660254037844386000, 0.0000000000000000000, -0.5000000000000001100 ) ) ;
#328 = DIRECTION ( 'NONE',  ( -0.5000000000000001100, 0.0000000000000000000, -0.8660254037844386000 ) ) ;
#329 = CARTESIAN_POINT ( 'NONE',  ( 0.0000000000000000000, 0.0000000000000000000, 0.0000000000000000000 ) ) ;
#330 = DIRECTION ( 'NONE',  ( -0.0000000000000000000, 1.000000000000000000, -0.0000000000000000000 ) ) ;
#331 = DIRECTION ( 'NONE',  ( -0.8660254037844388200, 0.0000000000000000000, -0.4999999999999997200 ) ) ;
#332 = DIRECTION ( 'NONE',  ( -0.4999999999999997200, 0.0000000000000000000, 0.8660254037844388200 ) ) ;
#333 = CARTESIAN_POINT ( 'NONE',  ( -13.27905619136140200, 24.00000000000000000, -23.00000000000000700 ) ) ;
#334 = CARTESIAN_POINT ( 'NONE',  ( 13.27905619136138600, 24.00000000000000000, 23.00000000000000400 ) ) ;
#335 = PLANE ( 'NONE',  #38 ) ;
#336 = CARTESIAN_POINT ( 'NONE',  ( 1.836970198721029600E-015, 0.0000000000000000000, -15.00000000000000000 ) ) ;
#337 = CARTESIAN_POINT ( 'NONE',  ( 0.0000000000000000000, 24.00000000000000000, 15.00000000000000000 ) ) ;
#338 = DIRECTION ( 'NONE',  ( 0.8660254037844388200, -0.0000000000000000000, 0.4999999999999998300 ) ) ;
#339 = DIRECTION ( 'NONE',  ( 0.4999999999999997800, 0.0000000000000000000, -0.8660254037844387100 ) ) ;
#340 = CARTESIAN_POINT ( 'NONE',  ( 13.27905619136138600, 0.0000000000000000000, -23.00000000000000700 ) ) ;
#341 = CARTESIAN_POINT ( 'NONE',  ( -13.27905619136140200, 24.00000000000000000, -23.00000000000000700 ) ) ;
#342 = CARTESIAN_POINT ( 'NONE',  ( 0.0000000000000000000, 0.0000000000000000000, 15.00000000000000000 ) ) ;
#343 = CARTESIAN_POINT ( 'NONE',  ( 13.27905619136138600, 24.00000000000000000, -23.00000000000000700 ) ) ;
#344 = CARTESIAN_POINT ( 'NONE',  ( -13.27905619136140200, 0.0000000000000000000, -23.00000000000000700 ) ) ;
#345 = CARTESIAN_POINT ( 'NONE',  ( -26.55811238272279300, 0.0000000000000000000, 3.393177021046032500E-015 ) ) ;
#346 = CARTESIAN_POINT ( 'NONE',  ( 1.836970198721029600E-015, 24.00000000000000000, -15.00000000000000000 ) ) ;
#347 = CARTESIAN_POINT ( 'NONE',  ( -26.55811238272279300, 24.00000000000000000, 3.393177021046032500E-015 ) ) ;
#348 = CARTESIAN_POINT ( 'NONE',  ( 26.55811238272277600, 24.00000000000000000, -1.050098389940712000E-014 ) ) ;
#349 = CARTESIAN_POINT ( 'NONE',  ( 26.55811238272277600, 0.0000000000000000000, -1.050098389940712000E-014 ) ) ;
#350 = CARTESIAN_POINT ( 'NONE',  ( 13.27905619136138600, 0.0000000000000000000, 23.00000000000000400 ) ) ;
#351 = CARTESIAN_POINT ( 'NONE',  ( -13.27905619136140000, 0.0000000000000000000, 23.00000000000000000 ) ) ;
#352 = CARTESIAN_POINT ( 'NONE',  ( -13.27905619136140000, 24.00000000000000000, 23.00000000000000000 ) ) ;
#353 =( LENGTH_UNIT ( ) NAMED_UNIT ( * ) SI_UNIT ( .MILLI., .METRE. ) );
#354 =( NAMED_UNIT ( * ) PLANE_ANGLE_UNIT ( ) SI_UNIT ( $, .RADIAN. ) );
#355 =( NAMED_UNIT ( * ) SI_UNIT ( $, .STERADIAN. ) SOLID_ANGLE_UNIT ( ) );
#356 = CARTESIAN_POINT ( 'NONE',  ( 0.0000000000000000000, 0.0000000000000000000, 0.0000000000000000000 ) ) ;
#357 = DIRECTION ( 'NONE',  ( 0.0000000000000000000, 0.0000000000000000000, 1.000000000000000000 ) ) ;
#358 = DIRECTION ( 'NONE',  ( 1.000000000000000000, 0.0000000000000000000, 0.0000000000000000000 ) ) ;
#359 = APPLICATION_CONTEXT ( 'configuration controlled 3d designs of mechanical parts and assemblies' ) ;
#360 = APPLICATION_PROTOCOL_DEFINITION ( 'international standard', 'config_control_design', 1994, #359 ) ;
#361 = MECHANICAL_CONTEXT ( 'NONE', #359, 'mechanical' ) ;
#362 = PERSON_AND_ORGANIZATION_ROLE ( 'design_owner' ) ;
#363 = APPLICATION_CONTEXT ( 'configuration controlled 3d designs of mechanical parts and assemblies' ) ;
#364 = APPLICATION_PROTOCOL_DEFINITION ( 'international standard', 'config_control_design', 1994, #363 ) ;
#365 = APPROVAL_STATUS ( 'not_yet_approved' ) ;
#366 = APPROVAL_ROLE ( '' ) ;
#367 = PERSON_AND_ORGANIZATION_ROLE ( 'creator' ) ;
#368 = DATE_TIME_ROLE ( 'creation_date' ) ;
#369 = APPROVAL_STATUS ( 'not_yet_approved' ) ;
#370 = APPROVAL_ROLE ( '' ) ;
#371 = PERSON_AND_ORGANIZATION_ROLE ( 'creator' ) ;
#372 = PERSON_AND_ORGANIZATION_ROLE ( 'design_supplier' ) ;
#373 = SECURITY_CLASSIFICATION_LEVEL ( 'unclassified' ) ;
#374 = PERSON_AND_ORGANIZATION_ROLE ( 'classification_officer' ) ;
#375 = DATE_TIME_ROLE ( 'classification_date' ) ;
#376 = APPROVAL_STATUS ( 'not_yet_approved' ) ;
#377 = APPROVAL_ROLE ( '' ) ;
ENDSEC;
END-ISO-10303-21;
